  0
SECTION
  2
HEADER
  9
$ACADVER
  1
AC1009
  9
$INSBASE
 10
0
 20
0
 30
0
  9
$EXTMIN
 10
0
 20
0
  9
$EXTMAX
 10
420
 20
297
  9
$LIMMIN
 10
0
 20
0
  9
$LIMMAX
 10
420
 20
297
  9
$LTSCALE
 40
1
  0
ENDSEC
  0
SECTION
  2
TABLES
  0
TABLE
  2
LTYPE
 70
     9
  0
LTYPE
  2
CONTINUOUS
 70
    64
  3
実線
 72
    65
 73
     0
 40
0.0
  0
LTYPE
  2
DASHED1
 70
    64
  3
--  --  --  --  --  --  --  --  
 72
    65
 73
     2
 40
2.5
 49
1.25
 49
-1.25
  0
LTYPE
  2
DASHED2
 70
    64
  3
----    ----    ----    ----    
 72
    65
 73
     2
 40
5.0
 49
2.5
 49
-2.5
  0
LTYPE
  2
DASHED3
 70
    64
  3
------  ------  ------  ------  
 72
    65
 73
     2
 40
5.0
 49
3.75
 49
-1.25
  0
LTYPE
  2
CENTER1
 70
    64
  3
----- - ----- - ----- - ----- - 
 72
    65
 73
     4
 40
10.0
 49
6.25
 49
-1.25
 49
1.25
 49
-1.25
  0
LTYPE
  2
CENTER2
 70
    64
  3
----------  --  ----------  --  
 72
    65
 73
     4
 40
20.0
 49
12.5
 49
-2.5
 49
2.5
 49
-2.5
  0
LTYPE
  2
PHANTOM1
 70
    64
  3
--- - - --- - - --- - - --- - - 
 72
    65
 73
     6
 40
10.0
 49
3.25
 49
-1.25
 49
1.25
 49
-1.25
 49
1.25
 49
-1.25
  0
LTYPE
  2
PHANTOM2
 70
    64
  3
--------  -  -  --------  -  -  
 72
    65
 73
     6
 40
20.0
 49
10.0
 49
-2.5
 49
1.25
 49
-2.5
 49
1.25
 49
-2.5
  0
LTYPE
  2
DOT
 70
    64
  3
-   -   -   -   -   -   -   -   
 72
    65
 73
     2
 40
2.5
 49
0.625
 49
-1.875
  0
LTYPE
  2
DUMMY
 70
    64
  3
ダミー
 72
    65
 73
     0
 40
0.0
  0
LTYPE
  2
RAND1
 70
    64
  3
ランダム線1
 72
    65
 73
     4
 40
10.0
 49
1.0
 49
-2.0
 49
3.0
 49
-4.0
  0
LTYPE
  2
RAND2
 70
    64
  3
ランダム線2
 72
    65
 73
     4
 40
14.0
 49
2.0
 49
-3.0
 49
4.0
 49
-5.0
  0
LTYPE
  2
RAND3
 70
    64
  3
ランダム線3
 72
    65
 73
     4
 40
18.0
 49
3.0
 49
-4.0
 49
5.0
 49
-6.0
  0
LTYPE
  2
RAND4
 70
    64
  3
ランダム線4
 72
    65
 73
     4
 40
22.0
 49
4.0
 49
-5.0
 49
6.0
 49
-7.0
  0
LTYPE
  2
RAND5
 70
    64
  3
ランダム線5
 72
    65
 73
     4
 40
26.0
 49
5.0
 49
-6.0
 49
7.0
 49
-8.0
  0
LTYPE
  2
LONG1
 70
    64
  3
----------  --  ----------  --  
 72
    65
 73
     4
 40
40.0
 49
32.5
 49
-2.5
 49
2.5
 49
-2.5
  0
LTYPE
  2
LONG2
 70
    64
  3
--------  -  -  --------  -  -  
 72
    65
 73
     6
 40
40.0
 49
30.0
 49
-2.5
 49
1.25
 49
-2.5
 49
1.25
 49
-2.5
  0
LTYPE
  2
LONG3
 70
    64
  3
+++++++++++++++..+++++++++++++++
 72
    65
 73
     2
 40
40.0
 49
37.5
 49
-2.5
  0
LTYPE
  2
LONG4
 70
    64
  3
+++++++++++++++..+++++++++++++++
 72
    65
 73
     2
 40
80.0
 49
75.0
 49
-5.0
  0
LTYPE
  2
LONG5
 70
    64
  3
----------  --  ----------  --  
 72
    65
 73
     4
 40
60.0
 49
37.5
 49
-7.5
 49
7.5
 49
-7.5
  0
LTYPE
  2
dashed
 70
   64
  3
-------   -------------   ------
 72
   65
 73
    2
 40
7.5
 49
6
 49
-1.5
  0
LTYPE
  2
dashed_spaced
 70
   64
  3
----        --------        ----
 72
   65
 73
    2
 40
12
 49
6
 49
-6
  0
LTYPE
  2
long_dashed_dotted
 70
   64
  3
------------- --- --------------
 72
   65
 73
    4
 40
15.25
 49
12
 49
-1.5
 49
0.25
 49
-1.5
  0
LTYPE
  2
long_dashed_double-dotted
 70
   64
  3
----------- --- --- ------------
 72
   65
 73
    6
 40
17
 49
12
 49
-1.5
 49
0.25
 49
-1.5
 49
0.25
 49
-1.5
  0
LTYPE
  2
long_dashed_triplicate-dotted
 70
   64
  3
--------- --- --- --- ----------
 72
   65
 73
    8
 40
18.75
 49
12
 49
-1.5
 49
0.25
 49
-1.5
 49
0.25
 49
-1.5
 49
0.25
 49
-1.5
  0
LTYPE
  2
dotted
 70
   64
  3
   -       -       -       -    
 72
   65
 73
    2
 40
1.75
 49
0.25
 49
-1.5
  0
LTYPE
  2
chain
 70
   64
  3
-------------- -- --------------
 72
   65
 73
    4
 40
18.5
 49
12
 49
-1.5
 49
3.5
 49
-1.5
  0
LTYPE
  2
chain_double_dash
 70
   64
  3
------------ -- -- -------------
 72
   65
 73
    6
 40
23.5
 49
12
 49
-1.5
 49
3.5
 49
-1.5
 49
3.5
 49
-1.5
  0
LTYPE
  2
dashed_dotted
 70
   64
  3
-----------     -     ----------
 72
   65
 73
    4
 40
9.25
 49
6
 49
-1.5
 49
0.25
 49
-1.5
  0
LTYPE
  2
double-dashed_dotted
 70
   64
  3
------   -----------   -   -----
 72
   65
 73
    6
 40
16.75
 49
6
 49
-1.5
 49
6
 49
-1.5
 49
0.25
 49
-1.5
  0
LTYPE
  2
dashed_double-dotted
 70
   64
  3
---------    -    -    ---------
 72
   65
 73
    6
 40
11
 49
6
 49
-1.5
 49
0.25
 49
-1.5
 49
0.25
 49
-1.5
  0
LTYPE
  2
double-dashed_double-dotted
 70
   64
  3
-----   ---------   -   -   ----
 72
   65
 73
    8
 40
18.5
 49
6
 49
-1.5
 49
6
 49
-1.5
 49
0.25
 49
-1.5
 49
0.25
 49
-1.5
  0
LTYPE
  2
dashed_triplicate-dotted
 70
   64
  3
-------    -    -    -    ------
 72
   65
 73
    8
 40
12.75
 49
6
 49
-1.5
 49
0.25
 49
-1.5
 49
0.25
 49
-1.5
 49
0.25
 49
-1.5
  0
LTYPE
  2
double-dashed_triplicate-dotted
 70
   64
  3
-----  ---------  -  -  -  -----
 72
   65
 73
   10
 40
20.25
 49
6
 49
-1.5
 49
6
 49
-1.5
 49
0.25
 49
-1.5
 49
0.25
 49
-1.5
 49
0.25
 49
-1.5
  0
LTYPE
  2
undefined
 70
   64
  3
--------------------------------
 72
   65
 73
    0
 40
0
  0
LTYPE
  2
HIDDEN
 70
   64
  3
------     -----------     -----
 72
   65
 73
    2
 40
9.5249999999999986
 49
6.3499999999999988
 49
-3.1749999999999989
  0
LTYPE
  2
_
 70
   64
  3
                                
 72
   65
 73
    0
 40
0
  0
LTYPE
  2
__19
 70
   64
  3
                                
 72
   65
 73
    0
 40
0
  0
LTYPE
  2
__20
 70
   64
  3
                                
 72
   65
 73
    0
 40
0
  0
LTYPE
  2
__21
 70
   64
  3
                                
 72
   65
 73
    0
 40
0
  0
LTYPE
  2
__22
 70
   64
  3
                                
 72
   65
 73
    0
 40
0
  0
LTYPE
  2
__23
 70
   64
  3
                                
 72
   65
 73
    0
 40
0
  0
LTYPE
  2
__24
 70
   64
  3
                                
 72
   65
 73
    0
 40
0
  0
LTYPE
  2
__25
 70
   64
  3
                                
 72
   65
 73
    0
 40
0
  0
LTYPE
  2
__26
 70
   64
  3
                                
 72
   65
 73
    0
 40
0
  0
LTYPE
  2
__27
 70
   64
  3
                                
 72
   65
 73
    0
 40
0
  0
LTYPE
  2
__28
 70
   64
  3
                                
 72
   65
 73
    0
 40
0
  0
LTYPE
  2
__29
 70
   64
  3
                                
 72
   65
 73
    0
 40
0
  0
LTYPE
  2
__30
 70
   64
  3
                                
 72
   65
 73
    0
 40
0
  0
LTYPE
  2
__31
 70
   64
  3
                                
 72
   65
 73
    0
 40
0
  0
LTYPE
  2
__32
 70
   64
  3
                                
 72
   65
 73
    0
 40
0
  0
ENDTAB
  0
TABLE
  2
STYLE
  5
3
100
AcDbSymbolTable
 70
     1
  0
STYLE
  5
10
100
AcDbSymbolTableRecord
100
AcDbTextStyleTableRecord
  2
STANDARD
 70
     0
 40
0.0
 41
1.0
 50
0.0
 71
     0
 42
0.2
  3
txt
  4
bigfont.shx
  0
STYLE
  5
26
100
AcDbSymbolTableRecord
100
AcDbTextStyleTableRecord
  2
TATEGAKI
 70
    68
 40
0.0
 41
1.0
 50
0.0
 71
     0
 42
1.0
  3
txt
  4
bigfont.shx
  0
ENDTAB
  0
TABLE
  2
LAYER
 70
    9
  0
LAYER
  2
_0-1_1-1図枠
 70
   64
 62
    7
  6
CONTINUOUS
  0
LAYER
  2
_0-2_1-2図名
 70
   64
 62
    7
  6
CONTINUOUS
  0
LAYER
  2
_0-3_2-1寸法
 70
   64
 62
    7
  6
CONTINUOUS
  0
LAYER
  2
_0-4_Defpoints
 70
   64
 62
    7
  6
CONTINUOUS
  0
LAYER
  2
_0-5_5-1実寸型
 70
   64
 62
    7
  6
CONTINUOUS
  0
LAYER
  2
_0-6_6-1ハッチング
 70
   64
 62
    7
  6
CONTINUOUS
  0
LAYER
  2
_0-7_5-4図補助2
 70
   64
 62
    7
  6
CONTINUOUS
  0
LAYER
  2
_0-8_1-4文字
 70
   64
 62
    7
  6
CONTINUOUS
  0
LAYER
  2
ADD_LINE
 70
   64
 62
    7
  6
CONTINUOUS
  0
ENDTAB
  0
ENDSEC
  0
SECTION
  2
BLOCKS
  0
BLOCK
  2
-000-_Dot
 70
   64
 10
0
 20
0
 30
0
  0
CIRCLE
  8
_0-0_0
  6
CONTINUOUS
 62
    7
 10
0
 20
0
 40
0.5
  0
LINE
  8
_0-0_0
  6
CONTINUOUS
 62
    7
 10
0.5
 20
0
 11
-0.5
 21
0
  0
LINE
  8
_0-0_0
  6
CONTINUOUS
 62
    7
 10
-1
 20
0
 11
-2
 21
0
  0
ENDBLK
  0
ENDSEC
  0
SECTION
  2
ENTITIES
  0
TEXT
  8
_0-3_2-1寸法
 62
    7
 10
292.20657215823115
 20
153.50013056468734
 40
3
 41
1
 50
0
  1
O-10B 内ジョイント
  0
TEXT
  8
_0-2_1-2図名
 62
    7
 10
150.49971936635316
 20
33.296692793313781
 40
3
 41
1
 50
0
  1
〒105-0004東京都港区新橋5-8-11新橋エンタービル3Ｆ
  0
TEXT
  8
_0-2_1-2図名
 62
    7
 10
150.49971936635316
 20
27.993036760061244
 40
3
 41
1
 50
0
  1
TEL.(03)3431-9713(代）  FAX.(03)3431-9708
  0
TEXT
  8
_0-2_1-2図名
 62
    7
 10
150.49971936635316
 20
17.357341468603266
 40
3
 41
1
 50
0
  1
TEL.(048)932-3853(代）  FAX.(048)931-8164
  0
TEXT
  8
_0-2_1-2図名
 62
    7
 10
132.99971936635316
 20
22.660997501855348
 40
3
 41
1
 50
0
  1
関東支店
  0
TEXT
  8
_0-2_1-2図名
 62
    7
 10
256.72814576229206
 20
23.071196554534936
 40
7
 41
1
 50
0
  1
防水用アルミアングル　０シリ－ズ
  0
TEXT
  8
_0-2_1-2図名
 62
    7
 10
16.168803181673354
 20
272.31992751900202
 40
7
 41
1
 50
0
  1
品　番
  0
LINE
  8
_0-4_Defpoints
  6
CONTINUOUS
 62
    7
 10
9.7997193663531448
 20
286.20013056468747
 11
9.7997193663531448
 21
10.800130564687578
  0
LINE
  8
_0-4_Defpoints
  6
CONTINUOUS
 62
    7
 10
410.19971936635318
 20
286.20013056468747
 11
410.19971936635318
 21
10.800130564687464
  0
LINE
  8
_0-4_Defpoints
  6
CONTINUOUS
 62
    7
 10
9.7997193663531448
 20
10.800130564687407
 11
410.19971936635318
 21
10.800130564687407
  0
LINE
  8
_0-4_Defpoints
  6
CONTINUOUS
 62
    7
 10
9.7997193663531448
 20
286.20013056468747
 11
410.19971936635318
 21
286.20013056468747
  0
ARC
  8
_0-7_5-4図補助2
  6
CONTINUOUS
 62
    7
 10
19.616156628019496
 20
24.939028683400096
 40
0.8927184834083111
 50
87.542817716021617
 51
274.7221133393146
  0
ARC
  8
_0-7_5-4図補助2
  6
CONTINUOUS
 62
    7
 10
24.005356044632151
 20
24.939028683400096
 40
0.8927184834083111
 50
262.56242898477029
 51
97.442590533284474
  0
CIRCLE
  8
_0-7_5-4図補助2
  6
CONTINUOUS
 62
    7
 10
21.847952836540742
 20
26.500130564687396
 40
7.5081557790742037
  0
ARC
  8
_0-7_5-4図補助2
  6
CONTINUOUS
 62
    7
 10
21.847952836540742
 20
31.332111903262756
 40
1.711043346822769
 50
285.31550438120388
 51
255.1629311623818
  0
LINE
  8
_0-7_5-4図補助2
  6
CONTINUOUS
 62
    7
 10
21.847952836541136
 20
28.137488087741751
 11
21.847952836541136
 21
28.137488087741751
  0
LINE
  8
_0-7_5-4図補助2
  6
CONTINUOUS
 62
    7
 10
21.847952836541136
 20
28.137488087741751
 11
21.021007024151935
 21
28.099060773550502
  0
LINE
  8
_0-7_5-4図補助2
  6
CONTINUOUS
 62
    7
 10
21.021007024151935
 20
28.099060773550502
 11
20.218826129459874
 21
27.982687305686401
  0
LINE
  8
_0-7_5-4図補助2
  6
CONTINUOUS
 62
    7
 10
20.218826129459874
 20
27.982687305686401
 11
19.465784013027054
 21
27.791903633082686
  0
LINE
  8
_0-7_5-4図補助2
  6
CONTINUOUS
 62
    7
 10
19.465784013027054
 20
27.791903633082686
 11
18.78476147850359
 21
27.532506621090224
  0
LINE
  8
_0-7_5-4図補助2
  6
CONTINUOUS
 62
    7
 10
18.78476147850359
 20
27.532506621090224
 11
18.196451050986948
 21
27.212377916657182
  0
LINE
  8
_0-7_5-4図補助2
  6
CONTINUOUS
 62
    7
 10
18.196451050986948
 20
27.212377916657182
 11
17.718728245117777
 21
26.841244468474819
  0
LINE
  8
_0-7_5-4図補助2
  6
CONTINUOUS
 62
    7
 10
17.718728245117777
 20
26.841244468474819
 11
17.36610842661301
 21
26.430382978563568
  0
LINE
  8
_0-7_5-4図補助2
  6
CONTINUOUS
 62
    7
 10
17.36610842661301
 20
26.430382978563568
 11
17.149305770223677
 21
25.992277265388438
  0
LINE
  8
_0-7_5-4図補助2
  6
CONTINUOUS
 62
    7
 10
17.149305770223677
 20
25.992277265388438
 11
17.123984183473432
 21
25.906674688406412
  0
LINE
  8
_0-7_5-4図補助2
  6
CONTINUOUS
 62
    7
 10
17.123984183473716
 20
25.90667468840569
 11
17.123984183473716
 21
25.90667468840569
  0
LINE
  8
_0-7_5-4図補助2
  6
CONTINUOUS
 62
    7
 10
17.123984183473716
 20
25.90667468840569
 11
17.195516291055323
 21
25.150938301561485
  0
LINE
  8
_0-7_5-4図補助2
  6
CONTINUOUS
 62
    7
 10
17.195516291055323
 20
25.150938301561485
 11
17.408410328825042
 21
24.418126605242062
  0
LINE
  8
_0-7_5-4図補助2
  6
CONTINUOUS
 62
    7
 10
17.408410328825042
 20
24.418126605242062
 11
17.756197619174813
 21
23.730505712019486
  0
LINE
  8
_0-7_5-4図補助2
  6
CONTINUOUS
 62
    7
 10
17.756197619174813
 20
23.730505712019486
 11
18.228310821276228
 21
23.108968634781359
  0
LINE
  8
_0-7_5-4図補助2
  6
CONTINUOUS
 62
    7
 10
18.228310821276228
 20
23.108968634781359
 11
18.810405014384237
 21
22.572400463106625
  0
LINE
  8
_0-7_5-4図補助2
  6
CONTINUOUS
 62
    7
 10
18.810405014384237
 20
22.572400463106625
 11
19.484793560995129
 21
22.137104549375024
  0
LINE
  8
_0-7_5-4図補助2
  6
CONTINUOUS
 62
    7
 10
19.484793560995129
 20
22.137104549375024
 11
20.230985506377202
 21
21.816307139654935
  0
LINE
  8
_0-7_5-4図補助2
  6
CONTINUOUS
 62
    7
 10
20.230985506377202
 20
21.816307139654935
 11
21.026308185861364
 21
21.619755500909378
  0
LINE
  8
_0-7_5-4図補助2
  6
CONTINUOUS
 62
    7
 10
21.026308185861364
 20
21.619755500909378
 11
21.84659612228419
 21
21.553421755221706
  0
LINE
  8
_0-7_5-4図補助2
  6
CONTINUOUS
 62
    7
 10
21.84659612228419
 20
21.553421755221706
 11
22.66692528178319
 21
21.619321419888145
  0
LINE
  8
_0-7_5-4図補助2
  6
CONTINUOUS
 62
    7
 10
22.66692528178319
 20
21.619321419888145
 11
23.462370377953569
 21
21.815452166944645
  0
LINE
  8
_0-7_5-4図補助2
  6
CONTINUOUS
 62
    7
 10
23.462370377953569
 20
21.815452166944645
 11
24.208762214062833
 21
22.135854662888846
  0
LINE
  8
_0-7_5-4図補助2
  6
CONTINUOUS
 62
    7
 10
24.208762214062833
 20
22.135854662888846
 11
24.883422051863299
 21
22.570793640012962
  0
LINE
  8
_0-7_5-4図補助2
  6
CONTINUOUS
 62
    7
 10
24.883422051863299
 20
22.570793640012962
 11
25.465850693577746
 21
23.107053697586821
  0
LINE
  8
_0-7_5-4図補助2
  6
CONTINUOUS
 62
    7
 10
25.465850693577746
 20
23.107053697586821
 11
25.938351339650797
 21
23.728340845121721
  0
LINE
  8
_0-7_5-4図補助2
  6
CONTINUOUS
 62
    7
 10
25.938351339650797
 20
23.728340845121721
 11
26.286567297048382
 21
24.415777587026291
  0
LINE
  8
_0-7_5-4図補助2
  6
CONTINUOUS
 62
    7
 10
26.286567297048382
 20
24.415777587026291
 11
26.499918200110756
 21
25.148476505757525
  0
LINE
  8
_0-7_5-4図補助2
  6
CONTINUOUS
 62
    7
 10
26.499918200110756
 20
25.148476505757525
 11
26.571921489609132
 21
25.90417491543332
  0
LINE
  8
_0-7_5-4図補助2
  6
CONTINUOUS
 62
    7
 10
26.571921489609132
 20
25.90417491543332
 11
26.571921489609132
 21
25.906674688406721
  0
LINE
  8
_0-7_5-4図補助2
  6
CONTINUOUS
 62
    7
 10
15.663511566559748
 20
25.906674688406298
 11
15.663511478920498
 21
25.906258059605847
  0
LINE
  8
_0-7_5-4図補助2
  6
CONTINUOUS
 62
    7
 10
15.663511478920498
 20
25.906258059605847
 11
15.663511431117456
 21
25.905841430775382
  0
LINE
  8
_0-7_5-4図補助2
  6
CONTINUOUS
 62
    7
 10
15.663511431117456
 20
25.905841430775382
 11
15.663511423150283
 21
25.86125637559266
  0
LINE
  8
_0-7_5-4図補助2
  6
CONTINUOUS
 62
    7
 10
15.663511423150283
 20
25.86125637559266
 11
15.666738281811774
 21
25.639998279247806
  0
LINE
  8
_0-7_5-4図補助2
  6
CONTINUOUS
 62
    7
 10
15.666738281811774
 20
25.639998279247806
 11
15.696233119414671
 21
25.305553782809596
  0
LINE
  8
_0-7_5-4図補助2
  6
CONTINUOUS
 62
    7
 10
15.696233119414671
 20
25.305553782809596
 11
15.784026338851675
 21
24.739964406429493
  0
LINE
  8
_0-7_5-4図補助2
  6
CONTINUOUS
 62
    7
 10
15.784026338851675
 20
24.739964406429493
 11
15.924873372452055
 21
24.222464966565411
  0
LINE
  8
_0-7_5-4図補助2
  6
CONTINUOUS
 62
    7
 10
15.924873372452055
 20
24.222464966565411
 11
16.18182753863033
 21
23.56768065799983
  0
LINE
  8
_0-7_5-4図補助2
  6
CONTINUOUS
 62
    7
 10
16.18182753863033
 20
23.56768065799983
 11
16.445262178045084
 21
23.069489814419711
  0
LINE
  8
_0-7_5-4図補助2
  6
CONTINUOUS
 62
    7
 10
16.445262178045084
 20
23.069489814419711
 11
16.842125917112014
 21
22.485941030449766
  0
LINE
  8
_0-7_5-4図補助2
  6
CONTINUOUS
 62
    7
 10
16.842125917112014
 20
22.485941030449766
 11
17.20931481783299
 21
22.055532691261902
  0
LINE
  8
_0-7_5-4図補助2
  6
CONTINUOUS
 62
    7
 10
17.20931481783299
 20
22.055532691261902
 11
17.724403139867093
 21
21.568604202367197
  0
LINE
  8
_0-7_5-4図補助2
  6
CONTINUOUS
 62
    7
 10
17.724403139867093
 20
21.568604202367197
 11
18.176233162193682
 21
21.223733380639004
  0
LINE
  8
_0-7_5-4図補助2
  6
CONTINUOUS
 62
    7
 10
18.176233162193682
 20
21.223733380639004
 11
18.784005294616861
 21
20.852483424961605
  0
LINE
  8
_0-7_5-4図補助2
  6
CONTINUOUS
 62
    7
 10
18.784005294616861
 20
20.852483424961605
 11
19.299082067798679
 21
20.60599353328675
  0
LINE
  8
_0-7_5-4図補助2
  6
CONTINUOUS
 62
    7
 10
19.299082067798679
 20
20.60599353328675
 11
19.971933306020276
 21
20.363647795723949
  0
LINE
  8
_0-7_5-4図補助2
  6
CONTINUOUS
 62
    7
 10
19.971933306020276
 20
20.363647795723949
 11
20.527686992576776
 21
20.223993243275942
  0
LINE
  8
_0-7_5-4図補助2
  6
CONTINUOUS
 62
    7
 10
20.527686992576776
 20
20.223993243275942
 11
21.236980219327222
 21
20.118614777361046
  0
LINE
  8
_0-7_5-4図補助2
  6
CONTINUOUS
 62
    7
 10
21.236980219327222
 20
20.118614777361046
 11
21.810272790630904
 21
20.090337388778124
  0
LINE
  8
_0-7_5-4図補助2
  6
CONTINUOUS
 62
    7
 10
21.810272790630904
 20
20.090337388778124
 11
22.526907436041881
 21
20.125301980642831
  0
LINE
  8
_0-7_5-4図補助2
  6
CONTINUOUS
 62
    7
 10
22.526907436041881
 20
20.125301980642831
 11
23.094390484950679
 21
20.209300879898393
  0
LINE
  8
_0-7_5-4図補助2
  6
CONTINUOUS
 62
    7
 10
23.094390484950679
 20
20.209300879898393
 11
23.789180487020815
 21
20.383496834140345
  0
LINE
  8
_0-7_5-4図補助2
  6
CONTINUOUS
 62
    7
 10
23.789180487020815
 20
20.383496834140345
 11
24.327573328268898
 21
20.577081225219075
  0
LINE
  8
_0-7_5-4図補助2
  6
CONTINUOUS
 62
    7
 10
24.327573328268898
 20
20.577081225219075
 11
24.971594328307276
 21
20.884844000068568
  0
LINE
  8
_0-7_5-4図補助2
  6
CONTINUOUS
 62
    7
 10
24.971594328307276
 20
20.884844000068568
 11
25.457986376197766
 21
21.181574180858405
  0
LINE
  8
_0-7_5-4図補助2
  6
CONTINUOUS
 62
    7
 10
25.457986376197766
 20
21.181574180858405
 11
26.023022382468923
 21
21.612349290303911
  0
LINE
  8
_0-7_5-4図補助2
  6
CONTINUOUS
 62
    7
 10
26.023022382468923
 20
21.612349290303911
 11
26.435327500601659
 21
22.001657438405545
  0
LINE
  8
_0-7_5-4図補助2
  6
CONTINUOUS
 62
    7
 10
26.435327500601659
 20
22.001657438405545
 11
26.89462931991801
 21
22.539404893538432
  0
LINE
  8
_0-7_5-4図補助2
  6
CONTINUOUS
 62
    7
 10
26.89462931991801
 20
22.539404893538432
 11
27.212408850456939
 21
23.006059555856467
  0
LINE
  8
_0-7_5-4図補助2
  6
CONTINUOUS
 62
    7
 10
27.212408850456939
 20
23.006059555856467
 11
27.542075553648544
 21
23.628600441438692
  0
LINE
  8
_0-7_5-4図補助2
  6
CONTINUOUS
 62
    7
 10
27.542075553648544
 20
23.628600441438692
 11
27.747968879416192
 21
24.152309394834532
  0
LINE
  8
_0-7_5-4図補助2
  6
CONTINUOUS
 62
    7
 10
27.747968879416192
 20
24.152309394834532
 11
27.929147451896768
 21
24.831176419154389
  0
LINE
  8
_0-7_5-4図補助2
  6
CONTINUOUS
 62
    7
 10
27.929147451896768
 20
24.831176419154389
 11
28.009026968745218
 21
25.326147546159319
  0
LINE
  8
_0-7_5-4図補助2
  6
CONTINUOUS
 62
    7
 10
28.009026968745218
 20
25.326147546159319
 11
28.029245507691542
 21
25.723690601719994
  0
LINE
  8
_0-7_5-4図補助2
  6
CONTINUOUS
 62
    7
 10
28.029245507691542
 20
25.723690601719994
 11
28.032256751461034
 21
25.850260458819065
  0
LINE
  8
_0-7_5-4図補助2
  6
CONTINUOUS
 62
    7
 10
28.032256751461034
 20
25.850260458819065
 11
28.032383667981037
 21
25.906674688406298
  0
LINE
  8
_0-7_5-4図補助2
  6
CONTINUOUS
 62
    7
 10
43.560731244170995
 20
30.068362903359485
 11
40.417385234888741
 21
30.068362903359485
  0
ARC
  8
_0-7_5-4図補助2
  6
CONTINUOUS
 62
    7
 10
40.41738523488857
 20
30.342201509390804
 40
0.2738386060313148
 50
167.18944810377909
 51
270.00000000003286
  0
LINE
  8
_0-7_5-4図補助2
  6
CONTINUOUS
 62
    7
 10
40.150362872601875
 20
30.402919218438484
 11
40.454612296080256
 21
31.74093741865417
  0
ARC
  8
_0-7_5-4図補助2
  6
CONTINUOUS
 62
    7
 10
40.187589933793419
 20
31.80165512770202
 40
0.2738386060314856
 50
347.18944810375069
 51
90.00000000000432
  0
LINE
  8
_0-7_5-4図補助2
  6
CONTINUOUS
 62
    7
 10
40.18758993379339
 20
32.075493733733509
 11
38.365586268414916
 21
32.075493733733509
  0
ARC
  8
_0-7_5-4図補助2
  6
CONTINUOUS
 62
    7
 10
38.365586268415029
 20
31.619096057014815
 40
0.4563976767186939
 50
90.000000000014353
 51
167.18944810376072
  0
LINE
  8
_0-7_5-4図補助2
  6
CONTINUOUS
 62
    7
 10
37.920548997937374
 20
31.720292238761061
 11
37.593381073156195
 21
30.281483800342784
  0
ARC
  8
_0-7_5-4図補助2
  6
CONTINUOUS
 62
    7
 10
37.326358710869698
 20
30.34220150939062
 40
0.2738386060311333
 50
269.99999999999233
 51
347.18944810373796
  0
LINE
  8
_0-7_5-4図補助2
  6
CONTINUOUS
 62
    7
 10
37.32635871086967
 20
30.068362903359485
 11
33.686511176715214
 21
30.068362903359485
  0
LINE
  8
_0-7_5-4図補助2
  6
CONTINUOUS
 62
    7
 10
35.248768522679882
 20
26.946159513773949
 11
41.84968727778363
 21
26.946159513773949
  0
ARC
  8
_0-7_5-4図補助2
  6
CONTINUOUS
 62
    7
 10
41.84968727778363
 20
27.402557190492729
 40
0.4563976767187795
 50
270
 51
0.0000000000000127
  0
LINE
  8
_0-7_5-4図補助2
  6
CONTINUOUS
 62
    7
 10
42.30608495450241
 20
27.402557190492729
 11
42.30608495450241
 21
28.125201938688605
  0
ARC
  8
_0-7_5-4図補助2
  6
CONTINUOUS
 62
    7
 10
41.84968727778363
 20
28.125201938688605
 40
0.4563976767187795
 50
0
 51
90.000000000000014
  0
LINE
  8
_0-7_5-4図補助2
  6
CONTINUOUS
 62
    7
 10
41.84968727778363
 20
28.581599615407384
 11
35.248768522679882
 21
28.581599615407384
  0
ARC
  8
_0-7_5-4図補助2
  6
CONTINUOUS
 62
    7
 10
35.248768522679882
 20
28.125201938688605
 40
0.4563976767187795
 50
90
 51
180
  0
LINE
  8
_0-7_5-4図補助2
  6
CONTINUOUS
 62
    7
 10
34.792370845961102
 20
28.125201938688605
 11
34.792370845961102
 21
27.402557190492729
  0
LINE
  8
_0-7_5-4図補助2
  6
CONTINUOUS
 62
    7
 10
34.792370845961102
 20
27.402557190492729
 11
35.248768522679882
 21
26.946159513773949
  0
LINE
  8
_0-7_5-4図補助2
  6
CONTINUOUS
 62
    7
 10
35.248768522679882
 20
24.121308632583549
 11
41.84968727778363
 21
24.121308632583379
  0
ARC
  8
_0-7_5-4図補助2
  6
CONTINUOUS
 62
    7
 10
41.849687277783545
 20
24.577706309302243
 40
0.4563976767188648
 50
270.00000000001069
 51
0.0000000000107248
  0
LINE
  8
_0-7_5-4図補助2
  6
CONTINUOUS
 62
    7
 10
42.30608495450241
 20
24.577706309302329
 11
42.30608495450241
 21
25.300351057498204
  0
ARC
  8
_0-7_5-4図補助2
  6
CONTINUOUS
 62
    7
 10
41.84968727778363
 20
25.300351057498204
 40
0.4563976767187795
 50
0
 51
90.000000000000014
  0
LINE
  8
_0-7_5-4図補助2
  6
CONTINUOUS
 62
    7
 10
41.84968727778363
 20
25.756748734216984
 11
35.248768522679882
 21
25.756748734216984
  0
ARC
  8
_0-7_5-4図補助2
  6
CONTINUOUS
 62
    7
 10
35.248768522679882
 20
25.300351057498204
 40
0.4563976767187795
 50
90
 51
180
  0
LINE
  8
_0-7_5-4図補助2
  6
CONTINUOUS
 62
    7
 10
34.792370845961102
 20
25.300351057498204
 11
34.792370845961102
 21
24.577706309302329
  0
LINE
  8
_0-7_5-4図補助2
  6
CONTINUOUS
 62
    7
 10
34.792370845961102
 20
24.577706309302329
 11
35.248768522679882
 21
24.121308632583549
  0
LINE
  8
_0-7_5-4図補助2
  6
CONTINUOUS
 62
    7
 10
33.230113499996435
 20
29.611965226640876
 11
33.230113499996776
 21
23.093772808408261
  0
ARC
  8
_0-7_5-4図補助2
  6
CONTINUOUS
 62
    7
 10
35.055704206871411
 20
23.093772808408033
 40
1.82559070687463
 50
179.99999999999307
 51
225.02121038689245
  0
LINE
  8
_0-7_5-4図補助2
  6
CONTINUOUS
 62
    7
 10
33.765294601882886
 20
21.802407453297263
 11
33.825259362123177
 21
21.742487073468595
  0
LINE
  8
_0-7_5-4図補助2
  6
CONTINUOUS
 62
    7
 10
33.825259362123177
 20
21.742487073468595
 11
34.630283035008858
 21
21.340272929988686
  0
ARC
  8
_0-7_5-4図補助2
  6
CONTINUOUS
 62
    7
 10
35.446228854836136
 20
22.973372390565771
 40
1.8255907068756585
 50
243.45190144063668
 51
270.00000000001978
  0
LINE
  8
_0-7_5-4図補助2
  6
CONTINUOUS
 62
    7
 10
35.446228854836761
 20
21.147781683690113
 11
41.921094514193612
 21
21.147781683690113
  0
ARC
  8
_0-7_5-4図補助2
  6
CONTINUOUS
 62
    7
 10
41.921094514193868
 20
22.973372390565132
 40
1.825590706875025
 50
269.99999999999216
 51
306.8495492423242
  0
LINE
  8
_0-7_5-4図補助2
  6
CONTINUOUS
 62
    7
 10
43.01593018732882
 20
21.512510905735184
 11
43.421983058762692
 21
21.81682529381473
  0
LINE
  8
_0-7_5-4図補助2
  6
CONTINUOUS
 62
    7
 10
43.421983058762692
 20
21.81682529381473
 11
43.4819474730769
 21
21.876745295870109
  0
ARC
  8
_0-7_5-4図補助2
  6
CONTINUOUS
 62
    7
 10
42.191538214014741
 20
23.168110996651706
 40
1.8255907068750361
 50
314.97877426490726
 51
0.0000000000009986
  0
LINE
  8
_0-7_5-4図補助2
  6
CONTINUOUS
 62
    7
 10
44.017128920889775
 20
23.168110996651734
 11
44.017128920889775
 21
29.611965226640876
  0
LINE
  8
_0-7_5-4図補助2
  6
CONTINUOUS
 62
    7
 10
49.596619442191866
 20
31.50430261930731
 11
49.596619442191866
 21
23.800442221825364
  0
ARC
  8
_0-7_5-4図補助2
  6
CONTINUOUS
 62
    7
 10
49.322780836160376
 20
23.800442221825278
 40
0.2738386060314894
 50
270.00000000001785
 51
0.0000000000178365
  0
LINE
  8
_0-7_5-4図補助2
  6
CONTINUOUS
 62
    7
 10
49.322780836160462
 20
23.526603615793789
 11
48.257541717079391
 21
23.526603615793789
  0
LINE
  8
_0-7_5-4図補助2
  6
CONTINUOUS
 62
    7
 10
48.257541717079391
 20
23.526603615793789
 11
48.257541717079391
 21
21.049929560980416
  0
ARC
  8
_0-7_5-4図補助2
  6
CONTINUOUS
 62
    7
 10
48.53138032311054
 20
21.049929560980331
 40
0.2738386060311484
 50
179.99999999998215
 51
269.99999999998221
  0
LINE
  8
_0-7_5-4図補助2
  6
CONTINUOUS
 62
    7
 10
48.531380323110454
 20
20.776090954949183
 11
50.553693110579104
 21
20.776090954949183
  0
ARC
  8
_0-7_5-4図補助2
  6
CONTINUOUS
 62
    7
 10
50.553693110579104
 20
21.232488631667962
 40
0.4563976767187815
 50
270.00000000000023
 51
359.99999999999977
  0
LINE
  8
_0-7_5-4図補助2
  6
CONTINUOUS
 62
    7
 10
51.010090787297884
 20
21.232488631667962
 11
51.010090787297884
 21
23.526603615793789
  0
LINE
  8
_0-7_5-4図補助2
  6
CONTINUOUS
 62
    7
 10
44.686667783446353
 20
21.296458124382042
 11
44.686667783446353
 21
24.716014395351266
  0
LINE
  8
_0-7_5-4図補助2
  6
CONTINUOUS
 62
    7
 10
44.686667783446353
 20
24.716014395351266
 11
45.948366851550361
 21
24.861487194494629
  0
ARC
  8
_0-7_5-4図補助2
  6
CONTINUOUS
 62
    7
 10
45.739263151379163
 20
26.675062963963171
 40
1.825590706875091
 50
276.57711075220664
 51
317.26948359420095
  0
LINE
  8
_0-7_5-4図補助2
  6
CONTINUOUS
 62
    7
 10
47.080256820645843
 20
25.43630656821162
 11
47.513609854094
 21
25.905425174908572
  0
LINE
  8
_0-7_5-4図補助2
  6
CONTINUOUS
 62
    7
 10
47.513609854094
 20
25.905425174908572
 11
47.843576183277207
 21
26.784684462390231
  0
ARC
  8
_0-7_5-4図補助2
  6
CONTINUOUS
 62
    7
 10
46.134378388923494
 20
27.426108135795232
 40
1.8255907068748962
 50
339.43001087358914
 51
359.99999999997226
  0
LINE
  8
_0-7_5-4図補助2
  6
CONTINUOUS
 62
    7
 10
47.959969095798385
 20
27.426108135794351
 11
47.959969095798385
 21
27.912556005282596
  0
LINE
  8
_0-7_5-4図補助2
  6
CONTINUOUS
 62
    7
 10
44.686667783446353
 20
21.296458124382042
 11
45.629768905223898
 21
21.520839814207278
  0
ARC
  8
_0-7_5-4図補助2
  6
CONTINUOUS
 62
    7
 10
45.207220813745039
 20
23.29685629482222
 40
1.8255907068749901
 50
283.3829422042557
 51
321.82217352594461
  0
LINE
  8
_0-7_5-4図補助2
  6
CONTINUOUS
 62
    7
 10
46.642310656342659
 20
22.168450971943315
 11
47.067250612389614
 21
22.708883564977072
  0
LINE
  8
_0-7_5-4図補助2
  6
CONTINUOUS
 62
    7
 10
47.067250612389614
 20
22.708883564977072
 11
48.183148716650237
 21
24.344323293621272
  0
LINE
  8
_0-7_5-4図補助2
  6
CONTINUOUS
 62
    7
 10
48.183148716650237
 20
24.344323293621272
 11
48.703900958783095
 21
25.608072293524714
  0
LINE
  8
_0-7_5-4図補助2
  6
CONTINUOUS
 62
    7
 10
48.703900958783095
 20
25.608072293524714
 11
49.001474199629172
 21
27.540864903552773
  0
LINE
  8
_0-7_5-4図補助2
  6
CONTINUOUS
 62
    7
 10
49.001474199629172
 20
27.540864903552773
 11
49.001474199629172
 21
27.912556005282596
  0
LINE
  8
_0-7_5-4図補助2
  6
CONTINUOUS
 62
    7
 10
67.39936449560031
 20
21.008202421970253
 11
67.39936449560031
 21
24.244948629390109
  0
LINE
  8
_0-7_5-4図補助2
  6
CONTINUOUS
 62
    7
 10
67.39936449560031
 20
24.244948629390109
 11
67.903609511220964
 21
24.286029792186781
  0
ARC
  8
_0-7_5-4図補助2
  6
CONTINUOUS
 62
    7
 10
67.758552645894639
 20
24.518292763782696
 40
0.2738386060307492
 50
301.9863110967392
 51
344.7341170504933
  0
LINE
  8
_0-7_5-4図補助2
  6
CONTINUOUS
 62
    7
 10
68.022728684724314
 20
24.446191427726234
 11
68.217689978579244
 21
25.160520802916352
  0
LINE
  8
_0-7_5-4図補助2
  6
CONTINUOUS
 62
    7
 10
68.217689978579244
 20
25.160520802916352
 11
67.994510357727393
 21
27.836695243414823
  0
LINE
  8
_0-7_5-4図補助2
  6
CONTINUOUS
 62
    7
 10
69.779947324543912
 20
24.714491480840394
 11
69.779947324543912
 21
25.978240480744006
  0
LINE
  8
_0-7_5-4図補助2
  6
CONTINUOUS
 62
    7
 10
69.779947324543912
 20
25.978240480744006
 11
70.226306566247956
 21
25.978240480744006
  0
LINE
  8
_0-7_5-4図補助2
  6
CONTINUOUS
 62
    7
 10
70.226306566247956
 20
25.978240480744006
 11
70.375092567106265
 21
26.312761589310611
  0
LINE
  8
_0-7_5-4図補助2
  6
CONTINUOUS
 62
    7
 10
19.654429947951883
 20
25.830926347709095
 11
23.889719795958797
 21
25.824226146462109
  0
LINE
  8
_0-7_5-4図補助2
  6
CONTINUOUS
 62
    7
 10
19.689648030363117
 20
24.049340364717267
 11
23.889797345996783
 21
24.053821093176765
  0
LINE
  8
_0-7_5-4図補助2
  6
CONTINUOUS
 62
    7
 10
21.409803890682895
 20
29.678118301110857
 11
21.319344162679556
 21
29.673905876377347
  0
LINE
  8
_0-7_5-4図補助2
  6
CONTINUOUS
 62
    7
 10
21.319344162679556
 20
29.673905876377347
 11
21.159248511105318
 21
29.663921860525846
  0
LINE
  8
_0-7_5-4図補助2
  6
CONTINUOUS
 62
    7
 10
21.159248511105318
 20
29.663921860525846
 11
20.736068679871494
 21
29.630678745934318
  0
LINE
  8
_0-7_5-4図補助2
  6
CONTINUOUS
 62
    7
 10
20.736068679871494
 20
29.630678745934318
 11
20.241366077546729
 21
29.56368095394302
  0
LINE
  8
_0-7_5-4図補助2
  6
CONTINUOUS
 62
    7
 10
20.241366077546729
 20
29.56368095394302
 11
19.571382498925175
 21
29.435034424310942
  0
LINE
  8
_0-7_5-4図補助2
  6
CONTINUOUS
 62
    7
 10
19.571382498925175
 20
29.435034424310942
 11
19.053259842420687
 21
29.299684500193479
  0
LINE
  8
_0-7_5-4図補助2
  6
CONTINUOUS
 62
    7
 10
19.053259842420687
 20
29.299684500193479
 11
18.432863360590034
 21
29.089061439561675
  0
LINE
  8
_0-7_5-4図補助2
  6
CONTINUOUS
 62
    7
 10
18.432863360590034
 20
29.089061439561675
 11
17.978133782572002
 21
28.894657357062925
  0
LINE
  8
_0-7_5-4図補助2
  6
CONTINUOUS
 62
    7
 10
17.978133782572002
 20
28.894657357062925
 11
17.50451937287238
 21
28.640241732251269
  0
LINE
  8
_0-7_5-4図補助2
  6
CONTINUOUS
 62
    7
 10
17.50451937287238
 20
28.640241732251269
 11
17.191656452928839
 21
28.440599915528622
  0
LINE
  8
_0-7_5-4図補助2
  6
CONTINUOUS
 62
    7
 10
17.191656452928839
 20
28.440599915528622
 11
16.842418168295524
 21
28.173207822703858
  0
LINE
  8
_0-7_5-4図補助2
  6
CONTINUOUS
 62
    7
 10
16.842418168295524
 20
28.173207822703858
 11
16.59117763096009
 21
27.942929989051407
  0
LINE
  8
_0-7_5-4図補助2
  6
CONTINUOUS
 62
    7
 10
16.59117763096009
 20
27.942929989051407
 11
16.336812012950247
 21
27.656695630486439
  0
LINE
  8
_0-7_5-4図補助2
  6
CONTINUOUS
 62
    7
 10
16.336812012950247
 20
27.656695630486439
 11
16.174407270786617
 21
27.439187171453312
  0
LINE
  8
_0-7_5-4図補助2
  6
CONTINUOUS
 62
    7
 10
16.174407270786617
 20
27.439187171453312
 11
16.003251417216177
 21
27.158255086276057
  0
LINE
  8
_0-7_5-4図補助2
  6
CONTINUOUS
 62
    7
 10
16.003251417216177
 20
27.158255086276057
 11
15.886615119597707
 21
26.916595015161505
  0
LINE
  8
_0-7_5-4図補助2
  6
CONTINUOUS
 62
    7
 10
15.886615119597707
 20
26.916595015161505
 11
15.771021762899466
 21
26.594875188383952
  0
LINE
  8
_0-7_5-4図補助2
  6
CONTINUOUS
 62
    7
 10
15.771021762899466
 20
26.594875188383952
 11
15.709048437105082
 21
26.345916068398509
  0
LINE
  8
_0-7_5-4図補助2
  6
CONTINUOUS
 62
    7
 10
15.709048437105082
 20
26.345916068398509
 11
15.67663292509377
 21
26.104803614534234
  0
LINE
  8
_0-7_5-4図補助2
  6
CONTINUOUS
 62
    7
 10
15.67663292509377
 20
26.104803614534234
 11
15.666438852817407
 21
25.988412672918713
  0
LINE
  8
_0-7_5-4図補助2
  6
CONTINUOUS
 62
    7
 10
15.666438852817407
 20
25.988412672918713
 11
15.663511566559748
 21
25.906674688406298
  0
LINE
  8
_0-7_5-4図補助2
  6
CONTINUOUS
 62
    7
 10
26.571921489608734
 20
25.906674688406408
 11
26.571921489608734
 21
25.906674688406408
  0
LINE
  8
_0-7_5-4図補助2
  6
CONTINUOUS
 62
    7
 10
26.571921489608734
 20
25.906674688406408
 11
26.381915366394768
 21
26.348485532220362
  0
LINE
  8
_0-7_5-4図補助2
  6
CONTINUOUS
 62
    7
 10
26.381915366394768
 20
26.348485532220362
 11
26.05450849836447
 21
26.765540565235469
  0
LINE
  8
_0-7_5-4図補助2
  6
CONTINUOUS
 62
    7
 10
26.05450849836447
 20
26.765540565235469
 11
25.599648977527071
 21
27.145167781313592
  0
LINE
  8
_0-7_5-4図補助2
  6
CONTINUOUS
 62
    7
 10
25.599648977527071
 20
27.145167781313592
 11
25.031157480253192
 21
27.475832399594843
  0
LINE
  8
_0-7_5-4図補助2
  6
CONTINUOUS
 62
    7
 10
25.031157480253192
 20
27.475832399594843
 11
24.366307333016923
 21
27.747487342977109
  0
LINE
  8
_0-7_5-4図補助2
  6
CONTINUOUS
 62
    7
 10
24.366307333016923
 20
27.747487342977109
 11
23.62529967111163
 21
27.951878513469758
  0
LINE
  8
_0-7_5-4図補助2
  6
CONTINUOUS
 62
    7
 10
23.62529967111163
 20
27.951878513469758
 11
22.830649637376336
 21
28.082795588784293
  0
LINE
  8
_0-7_5-4図補助2
  6
CONTINUOUS
 62
    7
 10
22.830649637376336
 20
28.082795588784293
 11
22.006502270973765
 21
28.136260719834521
  0
LINE
  8
_0-7_5-4図補助2
  6
CONTINUOUS
 62
    7
 10
22.006502270973765
 20
28.136260719834521
 11
21.84795283654103
 21
28.137488087741751
  0
LINE
  8
_0-7_5-4図補助2
  6
CONTINUOUS
 62
    7
 10
22.286101782397907
 20
29.678118301110857
 11
22.376561510401586
 21
29.673905876377347
  0
LINE
  8
_0-7_5-4図補助2
  6
CONTINUOUS
 62
    7
 10
22.376561510401586
 20
29.673905876377347
 11
22.536657161975825
 21
29.663921860525846
  0
LINE
  8
_0-7_5-4図補助2
  6
CONTINUOUS
 62
    7
 10
22.536657161975825
 20
29.663921860525846
 11
22.959836993209308
 21
29.630678745934318
  0
LINE
  8
_0-7_5-4図補助2
  6
CONTINUOUS
 62
    7
 10
22.959836993209308
 20
29.630678745934318
 11
23.454539595534072
 21
29.56368095394302
  0
LINE
  8
_0-7_5-4図補助2
  6
CONTINUOUS
 62
    7
 10
23.454539595534072
 20
29.56368095394302
 11
24.124523174156309
 21
29.435034424310942
  0
LINE
  8
_0-7_5-4図補助2
  6
CONTINUOUS
 62
    7
 10
24.124523174156309
 20
29.435034424310942
 11
24.642645830660456
 21
29.299684500193479
  0
LINE
  8
_0-7_5-4図補助2
  6
CONTINUOUS
 62
    7
 10
24.642645830660456
 20
29.299684500193479
 11
25.263042312491109
 21
29.089061439561675
  0
LINE
  8
_0-7_5-4図補助2
  6
CONTINUOUS
 62
    7
 10
25.263042312491109
 20
29.089061439561675
 11
25.717771890509141
 21
28.894657357062925
  0
LINE
  8
_0-7_5-4図補助2
  6
CONTINUOUS
 62
    7
 10
25.717771890509141
 20
28.894657357062925
 11
26.191386300209103
 21
28.640241732251269
  0
LINE
  8
_0-7_5-4図補助2
  6
CONTINUOUS
 62
    7
 10
26.191386300209103
 20
28.640241732251269
 11
26.504249220152303
 21
28.440599915528622
  0
LINE
  8
_0-7_5-4図補助2
  6
CONTINUOUS
 62
    7
 10
26.504249220152303
 20
28.440599915528622
 11
26.853487504785278
 21
28.173207822703858
  0
LINE
  8
_0-7_5-4図補助2
  6
CONTINUOUS
 62
    7
 10
26.853487504785278
 20
28.173207822703858
 11
27.104728042121053
 21
27.942929989051407
  0
LINE
  8
_0-7_5-4図補助2
  6
CONTINUOUS
 62
    7
 10
27.104728042121053
 20
27.942929989051407
 11
27.359093660131236
 21
27.656695630486439
  0
LINE
  8
_0-7_5-4図補助2
  6
CONTINUOUS
 62
    7
 10
27.359093660131236
 20
27.656695630486439
 11
27.521498402294526
 21
27.439187171453312
  0
LINE
  8
_0-7_5-4図補助2
  6
CONTINUOUS
 62
    7
 10
27.521498402294526
 20
27.439187171453312
 11
27.692654255864966
 21
27.158255086276057
  0
LINE
  8
_0-7_5-4図補助2
  6
CONTINUOUS
 62
    7
 10
27.692654255864966
 20
27.158255086276057
 11
27.809290553483777
 21
26.916595015161505
  0
LINE
  8
_0-7_5-4図補助2
  6
CONTINUOUS
 62
    7
 10
27.809290553483777
 20
26.916595015161505
 11
27.924883910181677
 21
26.594875188383952
  0
LINE
  8
_0-7_5-4図補助2
  6
CONTINUOUS
 62
    7
 10
27.924883910181677
 20
26.594875188383952
 11
27.986857235976061
 21
26.345916068398509
  0
LINE
  8
_0-7_5-4図補助2
  6
CONTINUOUS
 62
    7
 10
27.986857235976061
 20
26.345916068398509
 11
28.019272747987031
 21
26.104803614534234
  0
LINE
  8
_0-7_5-4図補助2
  6
CONTINUOUS
 62
    7
 10
28.019272747987031
 20
26.104803614534234
 11
28.029466820263394
 21
25.988412672918713
  0
LINE
  8
_0-7_5-4図補助2
  6
CONTINUOUS
 62
    7
 10
28.029466820263394
 20
25.988412672918713
 11
28.032394106521394
 21
25.906674688406298
  0
ARC
  8
_0-7_5-4図補助2
  6
CONTINUOUS
 62
    7
 10
33.686511176715214
 20
29.611965226640876
 40
0.4563976767187499
 50
90
 51
180
  0
ARC
  8
_0-7_5-4図補助2
  6
CONTINUOUS
 62
    7
 10
43.560731244170995
 20
29.611965226640876
 40
0.4563976767187499
 50
0
 51
90
  0
LINE
  8
_0-7_5-4図補助2
  6
CONTINUOUS
 62
    7
 10
49.001474199629172
 20
27.912556005282596
 11
49.001474199629172
 21
29.473657513580832
  0
LINE
  8
_0-7_5-4図補助2
  6
CONTINUOUS
 62
    7
 10
49.001474199629172
 20
29.473657513580832
 11
44.960506389477416
 21
29.473657513580832
  0
LINE
  8
_0-7_5-4図補助2
  6
CONTINUOUS
 62
    7
 10
44.686667783446353
 20
29.199818907549599
 11
44.686667783446353
 21
28.18639461131383
  0
LINE
  8
_0-7_5-4図補助2
  6
CONTINUOUS
 62
    7
 10
44.960506389477416
 20
27.912556005282596
 11
47.959969095798385
 21
27.912556005282596
  0
ARC
  8
_0-7_5-4図補助2
  6
CONTINUOUS
 62
    7
 10
44.960506389477416
 20
29.199818907549599
 40
0.2738386060312498
 50
90
 51
180
  0
ARC
  8
_0-7_5-4図補助2
  6
CONTINUOUS
 62
    7
 10
44.960506389477416
 20
28.18639461131383
 40
0.2738386060312498
 50
180
 51
270
  0
LINE
  8
_0-7_5-4図補助2
  6
CONTINUOUS
 62
    7
 10
51.010090787297884
 20
23.395440302337505
 11
51.010090787297884
 21
31.50430261930731
  0
ARC
  8
_0-7_5-4図補助2
  6
CONTINUOUS
 62
    7
 10
50.73625218126648
 20
31.50430261930731
 40
0.2738386060312498
 50
0
 51
90
  0
LINE
  8
_0-7_5-4図補助2
  6
CONTINUOUS
 62
    7
 10
50.73625218126648
 20
31.778141225338544
 11
49.870458048222929
 21
31.778141225338544
  0
ARC
  8
_0-7_5-4図補助2
  6
CONTINUOUS
 62
    7
 10
49.870458048222929
 20
31.50430261930731
 40
0.2738386060312498
 50
90
 51
180
  0
LINE
  8
_0-7_5-4図補助2
  6
CONTINUOUS
 62
    7
 10
51.382056409008044
 20
28.730275683110079
 11
53.218111911533867
 21
30.361117529374638
  0
ARC
  8
_0-7_5-4図補助2
  6
CONTINUOUS
 62
    7
 10
53.399965150897231
 20
30.156381158677533
 40
0.2738386060312481
 50
51.360867585744501
 51
131.61248318655711
  0
LINE
  8
_0-7_5-4図補助2
  6
CONTINUOUS
 62
    7
 10
53.570953597035839
 20
30.37027490201794
 11
54.252796836858522
 21
29.825203717294443
  0
LINE
  8
_0-7_5-4図補助2
  6
CONTINUOUS
 62
    7
 10
54.263661640186513
 20
29.406573612231256
 11
52.497955132833738
 21
27.838217784936802
  0
LINE
  8
_0-7_5-4図補助2
  6
CONTINUOUS
 62
    7
 10
52.497955132833738
 20
27.838217784936802
 11
52.228839065752652
 21
27.623084181148187
  0
ARC
  8
_0-7_5-4図補助2
  6
CONTINUOUS
 62
    7
 10
52.399827497589911
 20
27.409190426374579
 40
0.2738386060312625
 50
128.63912858321601
 51
180
  0
LINE
  8
_0-7_5-4図補助2
  6
CONTINUOUS
 62
    7
 10
52.125988891558507
 20
27.409190426374579
 11
52.125988891558507
 21
27.257697566691633
  0
LINE
  8
_0-7_5-4図補助2
  6
CONTINUOUS
 62
    7
 10
52.491496253781577
 20
26.161824373434769
 11
53.018707374966596
 21
25.459396225821678
  0
LINE
  8
_0-7_5-4図補助2
  6
CONTINUOUS
 62
    7
 10
53.018707374966596
 20
25.459396225821678
 11
53.83703285794553
 21
24.567337954659337
  0
LINE
  8
_0-7_5-4図補助2
  6
CONTINUOUS
 62
    7
 10
53.83703285794553
 20
24.567337954659337
 11
54.432178100508224
 21
24.344323293621272
  0
LINE
  8
_0-7_5-4図補助2
  6
CONTINUOUS
 62
    7
 10
54.432178100508224
 20
24.344323293621272
 11
55.101716963064462
 21
24.418661513967407
  0
LINE
  8
_0-7_5-4図補助2
  6
CONTINUOUS
 62
    7
 10
55.101716963064462
 20
24.418661513967407
 11
55.101716963064462
 21
21.370796344728177
  0
LINE
  8
_0-7_5-4図補助2
  6
CONTINUOUS
 62
    7
 10
55.101716963064462
 20
21.370796344728177
 11
54.864450539751203
 21
21.370796344728177
  0
LINE
  8
_0-7_5-4図補助2
  6
CONTINUOUS
 62
    7
 10
53.605911034374742
 20
21.873942443146433
 11
52.57234813326221
 21
22.857560005669342
  0
LINE
  8
_0-7_5-4図補助2
  6
CONTINUOUS
 62
    7
 10
52.57234813326221
 20
22.857560005669342
 11
51.659871483039467
 21
24.31644181191777
  0
LINE
  8
_0-7_5-4図補助2
  6
CONTINUOUS
 62
    7
 10
51.382056409008044
 20
25.28451826520191
 11
51.382056409008044
 21
28.730275683110079
  0
ARC
  8
_0-7_5-4図補助2
  6
CONTINUOUS
 62
    7
 10
54.864450539751203
 20
23.196387051602954
 40
1.825590706874999
 50
226.41835229340569
 51
270
  0
ARC
  8
_0-7_5-4図補助2
  6
CONTINUOUS
 62
    7
 10
53.951579598433284
 20
27.257697566691633
 40
1.825590706874999
 50
180
 51
216.89025218270561
  0
ARC
  8
_0-7_5-4図補助2
  6
CONTINUOUS
 62
    7
 10
53.207647115883162
 20
25.28451826520191
 40
1.825590706874999
 50
180
 51
212.02445718107421
  0
ARC
  8
_0-7_5-4図補助2
  6
CONTINUOUS
 62
    7
 10
54.081808390719573
 20
29.611309973954206
 40
0.2738386060312498
 50
311.61248601406089
 51
51.360867585744558
  0
LINE
  8
_0-7_5-4図補助2
  6
CONTINUOUS
 62
    7
 10
61.424173717773044
 20
26.721622311214418
 11
61.546035368267155
 21
26.721622311214418
  0
LINE
  8
_0-7_5-4図補助2
  6
CONTINUOUS
 62
    7
 10
61.819873974298559
 20
26.995460917245822
 11
61.819873974298559
 21
27.414180196691831
  0
LINE
  8
_0-7_5-4図補助2
  6
CONTINUOUS
 62
    7
 10
61.546035368267155
 20
27.688018802723235
 11
61.424173717773044
 21
27.688018802723235
  0
LINE
  8
_0-7_5-4図補助2
  6
CONTINUOUS
 62
    7
 10
61.150335111742322
 20
27.414180196691831
 11
61.150335111742322
 21
26.995460917245822
  0
LINE
  8
_0-7_5-4図補助2
  6
CONTINUOUS
 62
    7
 10
60.754634855217148
 20
25.978240480744006
 11
62.141180610829508
 21
25.978240480744006
  0
LINE
  8
_0-7_5-4図補助2
  6
CONTINUOUS
 62
    7
 10
62.415019216860571
 20
26.252079086775069
 11
62.415019216860571
 21
28.231900247508378
  0
LINE
  8
_0-7_5-4図補助2
  6
CONTINUOUS
 62
    7
 10
62.141180610829508
 20
28.505738853539611
 11
60.754634855217148
 21
28.505738853539611
  0
LINE
  8
_0-7_5-4図補助2
  6
CONTINUOUS
 62
    7
 10
60.480796249186085
 20
28.231900247508378
 11
60.480796249186085
 21
26.252079086775069
  0
LINE
  8
_0-7_5-4図補助2
  6
CONTINUOUS
 62
    7
 10
60.754634855217148
 20
29.026106022972471
 11
62.066787610400354
 21
29.026106022972471
  0
LINE
  8
_0-7_5-4図補助2
  6
CONTINUOUS
 62
    7
 10
62.340626216431417
 20
29.299944629003534
 11
62.340626216431417
 21
29.34697280671972
  0
LINE
  8
_0-7_5-4図補助2
  6
CONTINUOUS
 62
    7
 10
62.066787610400354
 20
29.620811412750953
 11
60.754634855217148
 21
29.620811412750953
  0
LINE
  8
_0-7_5-4図補助2
  6
CONTINUOUS
 62
    7
 10
60.480796249186085
 20
29.34697280671972
 11
60.480796249186085
 21
29.299944629003534
  0
LINE
  8
_0-7_5-4図補助2
  6
CONTINUOUS
 62
    7
 10
60.34204806377744
 20
30.512869310924401
 11
62.479373782275331
 21
30.512869310924401
  0
LINE
  8
_0-7_5-4図補助2
  6
CONTINUOUS
 62
    7
 10
63.669665506529498
 20
31.627942243124807
 11
58.895429274848482
 21
31.627942243124807
  0
LINE
  8
_0-7_5-4図補助2
  6
CONTINUOUS
 62
    7
 10
65.073503533510063
 20
25.532211531657111
 11
65.073503533510063
 21
25.778740095058396
  0
LINE
  8
_0-7_5-4図補助2
  6
CONTINUOUS
 62
    7
 10
64.799664927478659
 20
26.0525787010898
 11
64.176722168427489
 21
26.0525787010898
  0
LINE
  8
_0-7_5-4図補助2
  6
CONTINUOUS
 62
    7
 10
63.902883562396426
 20
25.778740095058396
 11
63.902883562396426
 21
25.532211531657111
  0
LINE
  8
_0-7_5-4図補助2
  6
CONTINUOUS
 62
    7
 10
64.176722168427489
 20
27.316327700993241
 11
64.799664927478659
 21
27.316327700993241
  0
LINE
  8
_0-7_5-4図補助2
  6
CONTINUOUS
 62
    7
 10
65.073503533510063
 20
27.590166307024305
 11
65.073503533510063
 21
27.785870925432249
  0
LINE
  8
_0-7_5-4図補助2
  6
CONTINUOUS
 62
    7
 10
64.799664927478659
 20
28.059709531463653
 11
64.176722168427489
 21
28.059709531463653
  0
LINE
  8
_0-7_5-4図補助2
  6
CONTINUOUS
 62
    7
 10
63.902883562396426
 20
27.785870925432249
 11
63.902883562396426
 21
27.590166307024305
  0
LINE
  8
_0-7_5-4図補助2
  6
CONTINUOUS
 62
    7
 10
64.176722168427489
 20
29.323458531366924
 11
64.799664927478659
 21
29.323458531366924
  0
LINE
  8
_0-7_5-4図補助2
  6
CONTINUOUS
 62
    7
 10
65.073503533510063
 20
29.597297137398499
 11
65.073503533510063
 21
29.793001755806614
  0
LINE
  8
_0-7_5-4図補助2
  6
CONTINUOUS
 62
    7
 10
64.799664927478659
 20
30.066840361837848
 11
64.176722168427489
 21
30.066840361837848
  0
LINE
  8
_0-7_5-4図補助2
  6
CONTINUOUS
 62
    7
 10
63.902883562396426
 20
29.793001755806614
 11
63.902883562396426
 21
29.597297137398499
  0
LINE
  8
_0-7_5-4図補助2
  6
CONTINUOUS
 62
    7
 10
66.134679770916989
 20
25.532211531657111
 11
66.134679770916989
 21
30.50250095628175
  0
LINE
  8
_0-7_5-4図補助2
  6
CONTINUOUS
 62
    7
 10
65.67828209419821
 20
30.958898633000189
 11
64.549313416143775
 21
30.958898633000189
  0
LINE
  8
_0-7_5-4図補助2
  6
CONTINUOUS
 62
    7
 10
62.935771458994111
 20
30.056471634205792
 11
62.935771458994111
 21
25.988609208375891
  0
LINE
  8
_0-7_5-4図補助2
  6
CONTINUOUS
 62
    7
 10
58.861883602532032
 20
25.532211531657111
 11
58.861883602532032
 21
25.778740095058396
  0
LINE
  8
_0-7_5-4図補助2
  6
CONTINUOUS
 62
    7
 10
58.588044996500969
 20
26.0525787010898
 11
57.92769278456916
 21
26.0525787010898
  0
LINE
  8
_0-7_5-4図補助2
  6
CONTINUOUS
 62
    7
 10
57.653854178538097
 20
25.778740095058396
 11
57.653854178538097
 21
25.532211531657111
  0
LINE
  8
_0-7_5-4図補助2
  6
CONTINUOUS
 62
    7
 10
57.92769278456916
 20
27.316327700993241
 11
58.588044996500969
 21
27.316327700993241
  0
LINE
  8
_0-7_5-4図補助2
  6
CONTINUOUS
 62
    7
 10
58.861883602532032
 20
27.590166307024305
 11
58.861883602532032
 21
27.785870925432249
  0
LINE
  8
_0-7_5-4図補助2
  6
CONTINUOUS
 62
    7
 10
58.588044996500969
 20
28.059709531463653
 11
57.92769278456916
 21
28.059709531463653
  0
LINE
  8
_0-7_5-4図補助2
  6
CONTINUOUS
 62
    7
 10
57.653854178538097
 20
27.785870925432249
 11
57.653854178538097
 21
27.590166307024305
  0
LINE
  8
_0-7_5-4図補助2
  6
CONTINUOUS
 62
    7
 10
57.92769278456916
 20
29.323458531366924
 11
58.588044996500969
 21
29.323458531366924
  0
LINE
  8
_0-7_5-4図補助2
  6
CONTINUOUS
 62
    7
 10
58.861883602532032
 20
29.597297137398499
 11
58.861883602532032
 21
29.793001755806614
  0
LINE
  8
_0-7_5-4図補助2
  6
CONTINUOUS
 62
    7
 10
58.588044996500969
 20
30.066840361837848
 11
57.92769278456916
 21
30.066840361837848
  0
LINE
  8
_0-7_5-4図補助2
  6
CONTINUOUS
 62
    7
 10
57.653854178538097
 20
29.793001755806614
 11
57.653854178538097
 21
29.597297137398499
  0
LINE
  8
_0-7_5-4図補助2
  6
CONTINUOUS
 62
    7
 10
59.885650387059002
 20
25.988609208375891
 11
59.885650387058661
 21
30.056471634205792
  0
LINE
  8
_0-7_5-4図補助2
  6
CONTINUOUS
 62
    7
 10
58.015781365233522
 20
30.958898633000189
 11
57.143139751854903
 21
30.958898633000189
  0
LINE
  8
_0-7_5-4図補助2
  6
CONTINUOUS
 62
    7
 10
56.686742075135783
 20
30.50250095628175
 11
56.686742075135783
 21
25.532211531657111
  0
LINE
  8
_0-7_5-4図補助2
  6
CONTINUOUS
 62
    7
 10
63.774173812002516
 20
21.22059736251444
 11
66.357859391768841
 21
21.22059736251444
  0
LINE
  8
_0-7_5-4図補助2
  6
CONTINUOUS
 62
    7
 10
66.357859391768841
 20
21.22059736251444
 11
66.357859391768841
 21
23.143021244910273
  0
LINE
  8
_0-7_5-4図補助2
  6
CONTINUOUS
 62
    7
 10
65.901461715050061
 20
23.599418921629052
 11
64.697474410560687
 21
23.599418921629052
  0
LINE
  8
_0-7_5-4図補助2
  6
CONTINUOUS
 62
    7
 10
64.423635804529283
 20
23.873257527660115
 11
64.423635804529283
 21
24.143300366414195
  0
LINE
  8
_0-7_5-4図補助2
  6
CONTINUOUS
 62
    7
 10
62.861378458564957
 20
24.143300366414536
 11
62.861378458564957
 21
22.133392715951487
  0
LINE
  8
_0-7_5-4図補助2
  6
CONTINUOUS
 62
    7
 10
58.397786041523489
 20
24.143300366414536
 11
58.397786041523489
 21
23.798919307314321
  0
LINE
  8
_0-7_5-4図補助2
  6
CONTINUOUS
 62
    7
 10
56.240382833431738
 20
21.22059736251444
 11
59.047248034050597
 21
21.22059736251444
  0
LINE
  8
_0-7_5-4図補助2
  6
CONTINUOUS
 62
    7
 10
59.960043387488156
 20
22.133392715951487
 11
59.960043387488156
 21
24.417138972445599
  0
LINE
  8
_0-7_5-4図補助2
  6
CONTINUOUS
 62
    7
 10
58.123947435492084
 20
23.525080701282917
 11
56.696780510150518
 21
23.525080701282917
  0
LINE
  8
_0-7_5-4図補助2
  6
CONTINUOUS
 62
    7
 10
56.240382833431738
 20
23.068683024564137
 11
56.240382833431738
 21
21.22059736251444
  0
LINE
  8
_0-7_5-4図補助2
  6
CONTINUOUS
 62
    7
 10
55.868417211721237
 20
24.417138972445599
 11
58.123947435492084
 21
24.417138972445599
  0
LINE
  8
_0-7_5-4図補助2
  6
CONTINUOUS
 62
    7
 10
67.027398254325419
 20
24.417138972445599
 11
67.027398254325419
 21
25.075813854937991
  0
LINE
  8
_0-7_5-4図補助2
  6
CONTINUOUS
 62
    7
 10
66.571000577606299
 20
25.532211531657111
 11
66.134679770916989
 21
25.532211531657111
  0
LINE
  8
_0-7_5-4図補助2
  6
CONTINUOUS
 62
    7
 10
55.868417211721237
 20
25.075813854937991
 11
55.868417211721237
 21
24.417138972445599
  0
LINE
  8
_0-7_5-4図補助2
  6
CONTINUOUS
 62
    7
 10
59.960043387488156
 20
24.417138972445599
 11
62.587539852533894
 21
24.417138972445599
  0
LINE
  8
_0-7_5-4図補助2
  6
CONTINUOUS
 62
    7
 10
64.697474410560687
 20
24.417138972445429
 11
67.027398254325419
 21
24.417138972445599
  0
ARC
  8
_0-7_5-4図補助2
  6
CONTINUOUS
 62
    7
 10
60.754634855217148
 20
29.34697280671972
 40
0.2738386060312498
 50
90
 51
180
  0
ARC
  8
_0-7_5-4図補助2
  6
CONTINUOUS
 62
    7
 10
62.066787610400354
 20
29.34697280671972
 40
0.2738386060312498
 50
0
 51
90
  0
ARC
  8
_0-7_5-4図補助2
  6
CONTINUOUS
 62
    7
 10
62.066787610400354
 20
29.299944629003534
 40
0.2738386060312498
 50
270
 51
0
  0
ARC
  8
_0-7_5-4図補助2
  6
CONTINUOUS
 62
    7
 10
60.754634855217148
 20
29.299944629003534
 40
0.2738386060312498
 50
180
 51
270
  0
ARC
  8
_0-7_5-4図補助2
  6
CONTINUOUS
 62
    7
 10
60.754634855217148
 20
28.231900247508378
 40
0.2738386060312498
 50
90
 51
180
  0
ARC
  8
_0-7_5-4図補助2
  6
CONTINUOUS
 62
    7
 10
62.141180610829508
 20
28.231900247508378
 40
0.2738386060312498
 50
0
 51
90
  0
ARC
  8
_0-7_5-4図補助2
  6
CONTINUOUS
 62
    7
 10
61.546035368267155
 20
27.414180196691831
 40
0.2738386060312498
 50
0
 51
90
  0
ARC
  8
_0-7_5-4図補助2
  6
CONTINUOUS
 62
    7
 10
61.424173717773044
 20
27.414180196691831
 40
0.2738386060312498
 50
90
 51
180
  0
ARC
  8
_0-7_5-4図補助2
  6
CONTINUOUS
 62
    7
 10
61.424173717773044
 20
26.995460917245822
 40
0.2738386060312498
 50
180
 51
270
  0
ARC
  8
_0-7_5-4図補助2
  6
CONTINUOUS
 62
    7
 10
61.546035368267155
 20
26.995460917245822
 40
0.2738386060312498
 50
270
 51
0
  0
ARC
  8
_0-7_5-4図補助2
  6
CONTINUOUS
 62
    7
 10
62.141180610829508
 20
26.252079086775069
 40
0.2738386060312498
 50
270
 51
0
  0
ARC
  8
_0-7_5-4図補助2
  6
CONTINUOUS
 62
    7
 10
60.754634855217148
 20
26.252079086775069
 40
0.2738386060312498
 50
180
 51
270
  0
ARC
  8
_0-7_5-4図補助2
  6
CONTINUOUS
 62
    7
 10
64.176722168427489
 20
29.793001755806614
 40
0.2738386060312498
 50
90
 51
180
  0
ARC
  8
_0-7_5-4図補助2
  6
CONTINUOUS
 62
    7
 10
64.799664927478659
 20
29.793001755806614
 40
0.2738386060312498
 50
0
 51
90
  0
ARC
  8
_0-7_5-4図補助2
  6
CONTINUOUS
 62
    7
 10
64.799664927478659
 20
29.597297137398499
 40
0.2738386060312498
 50
270
 51
0
  0
ARC
  8
_0-7_5-4図補助2
  6
CONTINUOUS
 62
    7
 10
64.176722168427489
 20
29.597297137398499
 40
0.2738386060312498
 50
180
 51
270
  0
ARC
  8
_0-7_5-4図補助2
  6
CONTINUOUS
 62
    7
 10
64.176722168427489
 20
27.785870925432249
 40
0.2738386060312498
 50
90
 51
180
  0
ARC
  8
_0-7_5-4図補助2
  6
CONTINUOUS
 62
    7
 10
64.799664927478659
 20
27.785870925432249
 40
0.2738386060312498
 50
0
 51
90
  0
ARC
  8
_0-7_5-4図補助2
  6
CONTINUOUS
 62
    7
 10
64.799664927478659
 20
27.590166307024305
 40
0.2738386060312498
 50
270
 51
0
  0
ARC
  8
_0-7_5-4図補助2
  6
CONTINUOUS
 62
    7
 10
64.176722168427489
 20
27.590166307024305
 40
0.2738386060312498
 50
180
 51
270
  0
ARC
  8
_0-7_5-4図補助2
  6
CONTINUOUS
 62
    7
 10
64.176722168427489
 20
25.778740095058396
 40
0.2738386060312498
 50
90
 51
180
  0
ARC
  8
_0-7_5-4図補助2
  6
CONTINUOUS
 62
    7
 10
64.799664927478659
 20
25.778740095058396
 40
0.2738386060312498
 50
0
 51
90
  0
ARC
  8
_0-7_5-4図補助2
  6
CONTINUOUS
 62
    7
 10
57.92769278456916
 20
29.793001755806614
 40
0.2738386060312498
 50
90
 51
180
  0
ARC
  8
_0-7_5-4図補助2
  6
CONTINUOUS
 62
    7
 10
58.588044996500969
 20
29.793001755806614
 40
0.2738386060312498
 50
0
 51
90
  0
ARC
  8
_0-7_5-4図補助2
  6
CONTINUOUS
 62
    7
 10
58.588044996500969
 20
29.597297137398499
 40
0.2738386060312498
 50
270
 51
0
  0
ARC
  8
_0-7_5-4図補助2
  6
CONTINUOUS
 62
    7
 10
57.92769278456916
 20
29.597297137398499
 40
0.2738386060312498
 50
180
 51
270
  0
ARC
  8
_0-7_5-4図補助2
  6
CONTINUOUS
 62
    7
 10
57.92769278456916
 20
27.785870925432249
 40
0.2738386060312498
 50
90
 51
180
  0
ARC
  8
_0-7_5-4図補助2
  6
CONTINUOUS
 62
    7
 10
57.92769278456916
 20
27.590166307024305
 40
0.2738386060312498
 50
180
 51
270
  0
ARC
  8
_0-7_5-4図補助2
  6
CONTINUOUS
 62
    7
 10
58.588044996500969
 20
27.785870925432249
 40
0.2738386060312498
 50
0
 51
90
  0
ARC
  8
_0-7_5-4図補助2
  6
CONTINUOUS
 62
    7
 10
58.588044996500969
 20
27.590166307024305
 40
0.2738386060312498
 50
270
 51
0
  0
ARC
  8
_0-7_5-4図補助2
  6
CONTINUOUS
 62
    7
 10
57.92769278456916
 20
25.778740095058396
 40
0.2738386060312498
 50
90
 51
180
  0
ARC
  8
_0-7_5-4図補助2
  6
CONTINUOUS
 62
    7
 10
58.588044996500969
 20
25.778740095058396
 40
0.2738386060312498
 50
0
 51
90
  0
ARC
  8
_0-7_5-4図補助2
  6
CONTINUOUS
 62
    7
 10
62.587539852533894
 20
24.143300366414536
 40
0.2738386060312498
 50
0
 51
90
  0
ARC
  8
_0-7_5-4図補助2
  6
CONTINUOUS
 62
    7
 10
64.697474410560687
 20
24.143300366414195
 40
0.2738386060312498
 50
90
 51
180
  0
ARC
  8
_0-7_5-4図補助2
  6
CONTINUOUS
 62
    7
 10
64.697474410560687
 20
23.873257527660115
 40
0.2738386060312498
 50
180
 51
270
  0
ARC
  8
_0-7_5-4図補助2
  6
CONTINUOUS
 62
    7
 10
58.123947435492084
 20
23.798919307314321
 40
0.2738386060312498
 50
270
 51
0
  0
ARC
  8
_0-7_5-4図補助2
  6
CONTINUOUS
 62
    7
 10
58.123947435492084
 20
24.143300366414536
 40
0.2738386060312498
 50
0
 51
90
  0
LINE
  8
_0-7_5-4図補助2
  6
CONTINUOUS
 62
    7
 10
56.686742075135783
 20
25.532211531657111
 11
56.324814888440358
 21
25.532211531657111
  0
LINE
  8
_0-7_5-4図補助2
  6
CONTINUOUS
 62
    7
 10
58.861883602532032
 20
25.532211531657111
 11
57.653854178538097
 21
25.532211531657111
  0
LINE
  8
_0-7_5-4図補助2
  6
CONTINUOUS
 62
    7
 10
62.479373782275331
 20
25.532211531657111
 11
60.34204806377744
 21
25.532211531657111
  0
LINE
  8
_0-7_5-4図補助2
  6
CONTINUOUS
 62
    7
 10
65.073503533510063
 20
25.532211531657111
 11
63.902883562396426
 21
25.532211531657111
  0
ARC
  8
_0-7_5-4図補助2
  6
CONTINUOUS
 62
    7
 10
57.143139751854903
 20
30.50250095628175
 40
0.4563976767187499
 50
90
 51
180
  0
ARC
  8
_0-7_5-4図補助2
  6
CONTINUOUS
 62
    7
 10
58.015781365233522
 20
31.415296309719139
 40
0.4563976767187499
 50
270
 51
344.51186822132928
  0
ARC
  8
_0-7_5-4図補助2
  6
CONTINUOUS
 62
    7
 10
58.895429274848482
 20
31.171544566406197
 40
0.4563976767187499
 50
90
 51
164.51186822132931
  0
ARC
  8
_0-7_5-4図補助2
  6
CONTINUOUS
 62
    7
 10
63.669665506529498
 20
31.171544566406197
 40
0.4563976767187499
 50
15.488131778670708
 51
90
  0
ARC
  8
_0-7_5-4図補助2
  6
CONTINUOUS
 62
    7
 10
64.549313416143775
 20
31.415296309719139
 40
0.4563976767187499
 50
195.48813177867069
 51
270
  0
ARC
  8
_0-7_5-4図補助2
  6
CONTINUOUS
 62
    7
 10
65.67828209419821
 20
30.50250095628175
 40
0.4563976767187499
 50
0
 51
90
  0
ARC
  8
_0-7_5-4図補助2
  6
CONTINUOUS
 62
    7
 10
65.901461715050061
 20
23.143021244910273
 40
0.4563976767187499
 50
0
 51
90
  0
ARC
  8
_0-7_5-4図補助2
  6
CONTINUOUS
 62
    7
 10
56.696780510150518
 20
23.068683024564137
 40
0.4563976767187499
 50
90
 51
180
  0
ARC
  8
_0-7_5-4図補助2
  6
CONTINUOUS
 62
    7
 10
56.324814888440358
 20
25.075813854937991
 40
0.4563976767187499
 50
90
 51
180
  0
ARC
  8
_0-7_5-4図補助2
  6
CONTINUOUS
 62
    7
 10
66.571000577606299
 20
25.075813854937991
 40
0.4563976767187499
 50
0
 51
90
  0
ARC
  8
_0-7_5-4図補助2
  6
CONTINUOUS
 62
    7
 10
60.34204806377744
 20
30.056471634205792
 40
0.4563976767187499
 50
90
 51
180
  0
ARC
  8
_0-7_5-4図補助2
  6
CONTINUOUS
 62
    7
 10
62.479373782275331
 20
30.056471634205792
 40
0.4563976767187499
 50
0
 51
90
  0
ARC
  8
_0-7_5-4図補助2
  6
CONTINUOUS
 62
    7
 10
60.34204806377744
 20
25.988609208375891
 40
0.4563976767187499
 50
180
 51
270
  0
ARC
  8
_0-7_5-4図補助2
  6
CONTINUOUS
 62
    7
 10
62.479373782275331
 20
25.988609208375891
 40
0.4563976767187499
 50
270
 51
0
  0
ARC
  8
_0-7_5-4図補助2
  6
CONTINUOUS
 62
    7
 10
63.774173812002516
 20
22.133392715951487
 40
0.9127953534374998
 50
180
 51
270
  0
ARC
  8
_0-7_5-4図補助2
  6
CONTINUOUS
 62
    7
 10
59.047248034050597
 20
22.133392715951487
 40
0.9127953534374998
 50
270
 51
0
  0
LINE
  8
_0-7_5-4図補助2
  6
CONTINUOUS
 62
    7
 10
77.540575069187355
 20
27.836695243414823
 11
70.265281266040859
 21
27.836695243414823
  0
ARC
  8
_0-7_5-4図補助2
  6
CONTINUOUS
 62
    7
 10
70.265281266040631
 20
27.562856637383561
 40
0.2738386060312673
 50
89.999999999949623
 51
134.97880155054224
  0
LINE
  8
_0-7_5-4図補助2
  6
CONTINUOUS
 62
    7
 10
70.071719784934373
 20
27.75656140032217
 11
69.562651208622754
 21
27.24786937788096
  0
ARC
  8
_0-7_5-4図補助2
  6
CONTINUOUS
 62
    7
 10
69.756212689729068
 20
27.054164614942948
 40
0.2738386060308876
 50
134.9788015506409
 51
180.00000000004752
  0
LINE
  8
_0-7_5-4図補助2
  6
CONTINUOUS
 62
    7
 10
69.482374083698176
 20
27.054164614942721
 11
69.482374083698176
 21
23.599418921629052
  0
LINE
  8
_0-7_5-4図補助2
  6
CONTINUOUS
 62
    7
 10
69.482374083698176
 20
23.599418921629052
 11
69.110408461988015
 21
21.740964531946958
  0
LINE
  8
_0-7_5-4図補助2
  6
CONTINUOUS
 62
    7
 10
69.110408461988015
 20
21.740964531946958
 11
68.366475979437553
 21
21.146259142168304
  0
LINE
  8
_0-7_5-4図補助2
  6
CONTINUOUS
 62
    7
 10
68.366475979437553
 20
21.146259142168304
 11
67.39936449560031
 21
21.008202421970253
  0
LINE
  8
_0-7_5-4図補助2
  6
CONTINUOUS
 62
    7
 10
72.184264168737457
 20
31.256251141394813
 11
69.384247068019079
 21
31.256251141394813
  0
LINE
  8
_0-7_5-4図補助2
  6
CONTINUOUS
 62
    7
 10
69.110408461988015
 20
30.98241253536375
 11
69.110408461988015
 21
30.192002527176982
  0
LINE
  8
_0-7_5-4図補助2
  6
CONTINUOUS
 62
    7
 10
69.384247068019079
 20
29.918163921145918
 11
70.324433581927394
 21
29.918163921145918
  0
LINE
  8
_0-7_5-4図補助2
  6
CONTINUOUS
 62
    7
 10
76.177762709260548
 20
29.225606408657399
 11
76.177762709260548
 21
29.644325315114514
  0
LINE
  8
_0-7_5-4図補助2
  6
CONTINUOUS
 62
    7
 10
74.56484637811667
 20
28.951767802626335
 11
72.211188519101995
 21
28.951767802626335
  0
LINE
  8
_0-7_5-4図補助2
  6
CONTINUOUS
 62
    7
 10
76.451601315291612
 20
29.918163921145918
 11
77.09421582748331
 21
29.918163921145918
  0
LINE
  8
_0-7_5-4図補助2
  6
CONTINUOUS
 62
    7
 10
77.368054433514715
 20
30.192002527176982
 11
77.368054433514715
 21
30.98241253536375
  0
LINE
  8
_0-7_5-4図補助2
  6
CONTINUOUS
 62
    7
 10
77.09421582748331
 20
31.256251141394813
 11
74.517378347616784
 21
31.256251141394813
  0
LINE
  8
_0-7_5-4図補助2
  6
CONTINUOUS
 62
    7
 10
70.598272187958457
 20
29.644325315114514
 11
70.598272187958457
 21
29.225606408657399
  0
LINE
  8
_0-7_5-4図補助2
  6
CONTINUOUS
 62
    7
 10
70.324433581927394
 20
28.951767802626335
 11
68.268348963758797
 21
28.951767802626335
  0
LINE
  8
_0-7_5-4図補助2
  6
CONTINUOUS
 62
    7
 10
67.994510357727393
 20
28.677929196595272
 11
67.994510357727393
 21
27.836695243414823
  0
LINE
  8
_0-7_5-4図補助2
  6
CONTINUOUS
 62
    7
 10
77.814413675218759
 20
28.110533849446227
 11
77.814413675218759
 21
28.677929196595272
  0
LINE
  8
_0-7_5-4図補助2
  6
CONTINUOUS
 62
    7
 10
77.540575069187355
 20
28.951767802626335
 11
76.451601315291612
 21
28.951767802626335
  0
LINE
  8
_0-7_5-4図補助2
  6
CONTINUOUS
 62
    7
 10
74.838684984148074
 20
29.644325315114514
 11
74.838684984148074
 21
29.225606408657399
  0
LINE
  8
_0-7_5-4図補助2
  6
CONTINUOUS
 62
    7
 10
71.937349913070591
 20
29.225606408657399
 11
71.937349913070591
 21
29.644325315114514
  0
LINE
  8
_0-7_5-4図補助2
  6
CONTINUOUS
 62
    7
 10
72.211188519101995
 20
29.918163921145918
 11
74.56484637811667
 21
29.918163921145918
  0
LINE
  8
_0-7_5-4図補助2
  6
CONTINUOUS
 62
    7
 10
74.24353974158538
 20
31.530089747426217
 11
74.24353974158538
 21
31.800132586180297
  0
LINE
  8
_0-7_5-4図補助2
  6
CONTINUOUS
 62
    7
 10
73.969701135554317
 20
32.073971192211701
 11
72.731941380799924
 21
32.073971192211701
  0
LINE
  8
_0-7_5-4図補助2
  6
CONTINUOUS
 62
    7
 10
72.458102774768861
 20
31.800132586180297
 11
72.458102774768861
 21
31.530089747426558
  0
ARC
  8
_0-7_5-4図補助2
  6
CONTINUOUS
 62
    7
 10
72.211188519101995
 20
29.644325315114514
 40
0.2738386060312498
 50
90
 51
180
  0
ARC
  8
_0-7_5-4図補助2
  6
CONTINUOUS
 62
    7
 10
74.56484637811667
 20
29.644325315114514
 40
0.2738386060312498
 50
0
 51
90
  0
ARC
  8
_0-7_5-4図補助2
  6
CONTINUOUS
 62
    7
 10
74.56484637811667
 20
29.225606408657399
 40
0.2738386060312498
 50
270
 51
0
  0
ARC
  8
_0-7_5-4図補助2
  6
CONTINUOUS
 62
    7
 10
72.211188519101995
 20
29.225606408657399
 40
0.2738386060312498
 50
180
 51
270
  0
ARC
  8
_0-7_5-4図補助2
  6
CONTINUOUS
 62
    7
 10
76.451601315291612
 20
29.644325315114514
 40
0.2738386060312498
 50
90
 51
180
  0
ARC
  8
_0-7_5-4図補助2
  6
CONTINUOUS
 62
    7
 10
76.451601315291612
 20
29.225606408657399
 40
0.2738386060312498
 50
180
 51
270
  0
ARC
  8
_0-7_5-4図補助2
  6
CONTINUOUS
 62
    7
 10
70.324433581927394
 20
29.225606408657399
 40
0.2738386060312498
 50
270
 51
0
  0
ARC
  8
_0-7_5-4図補助2
  6
CONTINUOUS
 62
    7
 10
70.324433581927394
 20
29.644325315114514
 40
0.2738386060312498
 50
0
 51
90
  0
ARC
  8
_0-7_5-4図補助2
  6
CONTINUOUS
 62
    7
 10
69.384247068019079
 20
30.192002527176982
 40
0.2738386060312498
 50
180
 51
270
  0
ARC
  8
_0-7_5-4図補助2
  6
CONTINUOUS
 62
    7
 10
77.09421582748331
 20
30.192002527176982
 40
0.2738386060312498
 50
270
 51
0
  0
ARC
  8
_0-7_5-4図補助2
  6
CONTINUOUS
 62
    7
 10
72.731941380799924
 20
31.800132586180297
 40
0.2738386060312498
 50
90
 51
180
  0
ARC
  8
_0-7_5-4図補助2
  6
CONTINUOUS
 62
    7
 10
73.969701135554317
 20
31.800132586180297
 40
0.2738386060312498
 50
0
 51
90
  0
ARC
  8
_0-7_5-4図補助2
  6
CONTINUOUS
 62
    7
 10
74.517378347616784
 20
31.530089747426217
 40
0.2738386060312498
 50
180
 51
270
  0
ARC
  8
_0-7_5-4図補助2
  6
CONTINUOUS
 62
    7
 10
72.184264168737457
 20
31.530089747426558
 40
0.2738386060312498
 50
270
 51
0
  0
ARC
  8
_0-7_5-4図補助2
  6
CONTINUOUS
 62
    7
 10
69.384247068019079
 20
30.98241253536375
 40
0.2738386060312498
 50
90
 51
180
  0
ARC
  8
_0-7_5-4図補助2
  6
CONTINUOUS
 62
    7
 10
77.09421582748331
 20
30.98241253536375
 40
0.2738386060312498
 50
0
 51
90
  0
ARC
  8
_0-7_5-4図補助2
  6
CONTINUOUS
 62
    7
 10
77.540575069187355
 20
28.677929196595272
 40
0.2738386060312498
 50
0
 51
90
  0
ARC
  8
_0-7_5-4図補助2
  6
CONTINUOUS
 62
    7
 10
77.540575069187355
 20
28.110533849446227
 40
0.2738386060312498
 50
270
 51
0
  0
ARC
  8
_0-7_5-4図補助2
  6
CONTINUOUS
 62
    7
 10
68.268348963758797
 20
28.677929196595272
 40
0.2738386060312498
 50
90
 51
180
  0
LINE
  8
_0-7_5-4図補助2
  6
CONTINUOUS
 62
    7
 10
74.913078604141617
 20
23.94759574800625
 11
74.913078604141617
 21
24.068962146068401
  0
LINE
  8
_0-7_5-4図補助2
  6
CONTINUOUS
 62
    7
 10
74.913078604141617
 20
25.58303547665011
 11
74.913078604141617
 21
25.704401874712602
  0
LINE
  8
_0-7_5-4図補助2
  6
CONTINUOUS
 62
    7
 10
75.186917210173021
 20
24.342800752099635
 11
75.82953110279999
 21
24.342800752099635
  0
LINE
  8
_0-7_5-4図補助2
  6
CONTINUOUS
 62
    7
 10
76.103369708831053
 20
24.616639358130868
 11
76.103369708831053
 21
25.035358264587984
  0
LINE
  8
_0-7_5-4図補助2
  6
CONTINUOUS
 62
    7
 10
75.82953110279999
 20
25.309196870619047
 11
75.186917210173021
 21
25.309196870619047
  0
LINE
  8
_0-7_5-4図補助2
  6
CONTINUOUS
 62
    7
 10
73.276428257748137
 20
24.068962146068401
 11
73.276428257748137
 21
23.94759574800625
  0
LINE
  8
_0-7_5-4図補助2
  6
CONTINUOUS
 62
    7
 10
74.913078604141617
 20
27.069799137591616
 11
74.913078604141617
 21
27.191165535653766
  0
LINE
  8
_0-7_5-4図補助2
  6
CONTINUOUS
 62
    7
 10
74.639239998110213
 20
27.465004141685171
 11
73.5502668637792
 21
27.465004141685171
  0
LINE
  8
_0-7_5-4図補助2
  6
CONTINUOUS
 62
    7
 10
73.276428257748137
 20
27.191165535653766
 11
73.276428257748137
 21
27.069799137591616
  0
LINE
  8
_0-7_5-4図補助2
  6
CONTINUOUS
 62
    7
 10
73.002589651716733
 20
26.795960531560212
 11
72.062402518244028
 21
26.795960531560553
  0
LINE
  8
_0-7_5-4図補助2
  6
CONTINUOUS
 62
    7
 10
75.186917210173021
 20
25.978240480744006
 11
76.647856585779266
 21
25.978240480744006
  0
LINE
  8
_0-7_5-4図補助2
  6
CONTINUOUS
 62
    7
 10
76.921695191810329
 20
26.252079086775069
 11
76.921695191810329
 21
26.522121925529149
  0
LINE
  8
_0-7_5-4図補助2
  6
CONTINUOUS
 62
    7
 10
76.647856585779266
 20
26.795960531560212
 11
75.186917210173021
 21
26.795960531560212
  0
LINE
  8
_0-7_5-4図補助2
  6
CONTINUOUS
 62
    7
 10
69.779947324543912
 20
24.714491480840394
 11
70.434054413187539
 21
24.714491480840394
  0
ARC
  8
_0-7_5-4図補助2
  6
CONTINUOUS
 62
    7
 10
70.434054413187539
 20
25.627286834277953
 40
0.9127953534374998
 50
270
 51
307.85445480948772
  0
LINE
  8
_0-7_5-4図補助2
  6
CONTINUOUS
 62
    7
 10
70.994198358240453
 20
24.906569054507628
 11
71.416597670937733
 21
25.234859023262146
  0
LINE
  8
_0-7_5-4図補助2
  6
CONTINUOUS
 62
    7
 10
71.416597670937733
 20
25.234859023262146
 11
71.686505312765519
 21
25.819226216882925
  0
LINE
  8
_0-7_5-4図補助2
  6
CONTINUOUS
 62
    7
 10
73.002589651716733
 20
23.673757141974676
 11
69.854340324973066
 21
23.673757141974676
  0
LINE
  8
_0-7_5-4図補助2
  6
CONTINUOUS
 62
    7
 10
69.854340324973066
 20
23.673757141974676
 11
69.854340324973066
 21
22.282069156643928
  0
ARC
  8
_0-7_5-4図補助2
  6
CONTINUOUS
 62
    7
 10
70.767135678410625
 20
22.282069156643928
 40
0.9127953534374998
 50
180
 51
270
  0
LINE
  8
_0-7_5-4図補助2
  6
CONTINUOUS
 62
    7
 10
70.767135678410625
 20
21.369273803206028
 11
76.9016183217812
 21
21.369273803206028
  0
ARC
  8
_0-7_5-4図補助2
  6
CONTINUOUS
 62
    7
 10
76.9016183217812
 20
22.282069156643928
 40
0.9127953534374998
 50
270
 51
0
  0
LINE
  8
_0-7_5-4図補助2
  6
CONTINUOUS
 62
    7
 10
77.814413675218759
 20
22.282069156643928
 11
77.814413675218759
 21
23.673757141974676
  0
LINE
  8
_0-7_5-4図補助2
  6
CONTINUOUS
 62
    7
 10
77.814413675218759
 20
23.673757141974676
 11
75.186917210173021
 21
23.673757141974676
  0
LINE
  8
_0-7_5-4図補助2
  6
CONTINUOUS
 62
    7
 10
73.276428257748137
 20
25.704401874712602
 11
73.276428257748137
 21
25.58303547665011
  0
LINE
  8
_0-7_5-4図補助2
  6
CONTINUOUS
 62
    7
 10
71.935107309133798
 20
25.978240480744006
 11
73.002589651716733
 21
25.978240480744006
  0
LINE
  8
_0-7_5-4図補助2
  6
CONTINUOUS
 62
    7
 10
73.002589651716733
 20
25.309196870619047
 11
72.211188519101995
 21
25.309196870619047
  0
LINE
  8
_0-7_5-4図補助2
  6
CONTINUOUS
 62
    7
 10
71.937349913070591
 20
25.035358264587984
 11
71.937349913070591
 21
24.616639358130868
  0
LINE
  8
_0-7_5-4図補助2
  6
CONTINUOUS
 62
    7
 10
72.211188519101995
 20
24.342800752099635
 11
73.002589651716733
 21
24.342800752099635
  0
LINE
  8
_0-7_5-4図補助2
  6
CONTINUOUS
 62
    7
 10
71.788563912212624
 20
27.069799137591616
 11
71.788563912212624
 21
27.116827315307802
  0
LINE
  8
_0-7_5-4図補助2
  6
CONTINUOUS
 62
    7
 10
71.51472530618156
 20
27.390665921339036
 11
70.648931173137669
 21
27.390665921339036
  0
LINE
  8
_0-7_5-4図補助2
  6
CONTINUOUS
 62
    7
 10
70.375092567106265
 20
27.116827315307802
 11
70.375092567106265
 21
26.275593362127694
  0
ARC
  8
_0-7_5-4図補助2
  6
CONTINUOUS
 62
    7
 10
75.186917210173021
 20
25.704401874712602
 40
0.2738386060312498
 50
90
 51
180
  0
ARC
  8
_0-7_5-4図補助2
  6
CONTINUOUS
 62
    7
 10
75.186917210173021
 20
25.58303547665011
 40
0.2738386060312498
 50
180
 51
270
  0
ARC
  8
_0-7_5-4図補助2
  6
CONTINUOUS
 62
    7
 10
75.186917210173021
 20
24.068962146068401
 40
0.2738386060312498
 50
90
 51
180
  0
ARC
  8
_0-7_5-4図補助2
  6
CONTINUOUS
 62
    7
 10
75.186917210173021
 20
23.94759574800625
 40
0.2738386060312498
 50
180
 51
270
  0
ARC
  8
_0-7_5-4図補助2
  6
CONTINUOUS
 62
    7
 10
73.002589651716733
 20
24.068962146068401
 40
0.2738386060312498
 50
0
 51
90
  0
ARC
  8
_0-7_5-4図補助2
  6
CONTINUOUS
 62
    7
 10
73.002589651716733
 20
23.94759574800625
 40
0.2738386060312498
 50
270
 51
0
  0
ARC
  8
_0-7_5-4図補助2
  6
CONTINUOUS
 62
    7
 10
73.002589651716733
 20
25.58303547665011
 40
0.2738386060312498
 50
270
 51
0
  0
ARC
  8
_0-7_5-4図補助2
  6
CONTINUOUS
 62
    7
 10
73.002589651716733
 20
25.704401874712602
 40
0.2738386060312498
 50
0
 51
90
  0
ARC
  8
_0-7_5-4図補助2
  6
CONTINUOUS
 62
    7
 10
73.002589651716733
 20
27.069799137591616
 40
0.2738386060312498
 50
270
 51
0
  0
ARC
  8
_0-7_5-4図補助2
  6
CONTINUOUS
 62
    7
 10
75.186917210173021
 20
27.069799137591616
 40
0.2738386060312498
 50
180
 51
270
  0
ARC
  8
_0-7_5-4図補助2
  6
CONTINUOUS
 62
    7
 10
76.647856585779266
 20
26.522121925529149
 40
0.2738386060312498
 50
0
 51
90
  0
ARC
  8
_0-7_5-4図補助2
  6
CONTINUOUS
 62
    7
 10
76.647856585779266
 20
26.252079086775069
 40
0.2738386060312498
 50
270
 51
0
  0
ARC
  8
_0-7_5-4図補助2
  6
CONTINUOUS
 62
    7
 10
75.82953110279999
 20
25.035358264587984
 40
0.2738386060312498
 50
0
 51
90
  0
ARC
  8
_0-7_5-4図補助2
  6
CONTINUOUS
 62
    7
 10
75.82953110279999
 20
24.616639358130868
 40
0.2738386060312498
 50
270
 51
0
  0
ARC
  8
_0-7_5-4図補助2
  6
CONTINUOUS
 62
    7
 10
73.5502668637792
 20
27.191165535653766
 40
0.2738386060312498
 50
90
 51
180
  0
ARC
  8
_0-7_5-4図補助2
  6
CONTINUOUS
 62
    7
 10
74.639239998110213
 20
27.191165535653766
 40
0.2738386060312498
 50
0
 51
90
  0
ARC
  8
_0-7_5-4図補助2
  6
CONTINUOUS
 62
    7
 10
71.51472530618156
 20
27.116827315307802
 40
0.2738386060312498
 50
0
 51
90
  0
ARC
  8
_0-7_5-4図補助2
  6
CONTINUOUS
 62
    7
 10
70.648931173137669
 20
27.116827315307802
 40
0.2738386060312498
 50
90
 51
180
  0
ARC
  8
_0-7_5-4図補助2
  6
CONTINUOUS
 62
    7
 10
71.935107309133798
 20
25.704401874712602
 40
0.2738386060312498
 50
90
 51
155.20871937809116
  0
ARC
  8
_0-7_5-4図補助2
  6
CONTINUOUS
 62
    7
 10
72.062402518244028
 20
27.069799137591616
 40
0.2738386060312498
 50
180
 51
270
  0
ARC
  8
_0-7_5-4図補助2
  6
CONTINUOUS
 62
    7
 10
72.211188519101995
 20
25.035358264587984
 40
0.2738386060312498
 50
90
 51
180
  0
ARC
  8
_0-7_5-4図補助2
  6
CONTINUOUS
 62
    7
 10
72.211188519101995
 20
24.616639358130868
 40
0.2738386060312498
 50
180
 51
270
  0
LINE
  8
_0-7_5-4図補助2
  6
CONTINUOUS
 62
    7
 10
89.239857752955402
 20
24.865521109788546
 11
89.463037373807595
 21
24.196477499663587
  0
LINE
  8
_0-7_5-4図補助2
  6
CONTINUOUS
 62
    7
 10
89.463037373807595
 20
24.196477499663587
 11
89.983789615940793
 21
24.047801058971658
  0
LINE
  8
_0-7_5-4図補助2
  6
CONTINUOUS
 62
    7
 10
89.983789615940793
 20
24.047801058971658
 11
90.504541858074333
 21
24.047801058971658
  0
LINE
  8
_0-7_5-4図補助2
  6
CONTINUOUS
 62
    7
 10
90.504541858074333
 20
24.047801058971658
 11
90.504541858074333
 21
20.999935889732257
  0
LINE
  8
_0-7_5-4図補助2
  6
CONTINUOUS
 62
    7
 10
90.504541858074333
 20
20.999935889732257
 11
90.396055389097071
 21
20.999935889732257
  0
LINE
  8
_0-7_5-4図補助2
  6
CONTINUOUS
 62
    7
 10
83.437186991236715
 20
21.074274110078221
 11
84.24421247546519
 21
21.231913918606523
  0
LINE
  8
_0-7_5-4図補助2
  6
CONTINUOUS
 62
    7
 10
83.437186991236715
 20
21.074274110078221
 11
83.437186991236715
 21
23.899124991268963
  0
LINE
  8
_0-7_5-4図補助2
  6
CONTINUOUS
 62
    7
 10
83.437186991236715
 20
23.899124991268963
 11
84.255512474215664
 21
23.973463211614757
  0
LINE
  8
_0-7_5-4図補助2
  6
CONTINUOUS
 62
    7
 10
84.255512474215664
 20
23.973463211614757
 11
84.70187171592039
 21
24.345153940355686
  0
LINE
  8
_0-7_5-4図補助2
  6
CONTINUOUS
 62
    7
 10
84.70187171592039
 20
24.345153940355686
 11
84.925051336772242
 21
24.716844669096275
  0
LINE
  8
_0-7_5-4図補助2
  6
CONTINUOUS
 62
    7
 10
84.925051336772242
 20
24.716844669096275
 11
84.999444956766112
 21
24.915080899656431
  0
LINE
  8
_0-7_5-4図補助2
  6
CONTINUOUS
 62
    7
 10
89.239857752955402
 20
24.865521109788205
 11
89.239857752955402
 21
26.129270109691646
  0
LINE
  8
_0-7_5-4図補助2
  6
CONTINUOUS
 62
    7
 10
88.364025184897116
 20
25.855431503660242
 11
88.364025184897116
 21
23.599022913353707
  0
LINE
  8
_0-7_5-4図補助2
  6
CONTINUOUS
 62
    7
 10
85.966556440603355
 20
23.879437306028166
 11
85.966556440603355
 21
25.855431503660242
  0
LINE
  8
_0-7_5-4図補助2
  6
CONTINUOUS
 62
    7
 10
84.999444956766112
 20
26.054931889345681
 11
84.999444956766112
 21
24.915080899656431
  0
LINE
  8
_0-7_5-4図補助2
  6
CONTINUOUS
 62
    7
 10
83.511580611230954
 20
29.325811719623147
 11
83.957939852934658
 21
29.771841041698934
  0
LINE
  8
_0-7_5-4図補助2
  6
CONTINUOUS
 62
    7
 10
83.957939852934658
 20
29.771841041698934
 11
84.181119473787192
 21
30.273623817798153
  0
LINE
  8
_0-7_5-4図補助2
  6
CONTINUOUS
 62
    7
 10
85.594590199328138
 20
29.971341427384033
 11
85.594590199328138
 21
31.207780384657866
  0
LINE
  8
_0-7_5-4図補助2
  6
CONTINUOUS
 62
    7
 10
85.320751593297075
 20
31.481618990688929
 11
84.45495807981824
 21
31.481618990688929
  0
LINE
  8
_0-7_5-4図補助2
  6
CONTINUOUS
 62
    7
 10
84.181119473787192
 20
31.207780384657866
 11
84.181119473787192
 21
30.273623817798153
  0
LINE
  8
_0-7_5-4図補助2
  6
CONTINUOUS
 62
    7
 10
86.561702302730453
 20
21.148612330424186
 11
87.975173028272422
 21
21.148612330424186
  0
LINE
  8
_0-7_5-4図補助2
  6
CONTINUOUS
 62
    7
 10
87.975173028272422
 20
21.148612330424186
 11
87.975173028272422
 21
26.129270109691646
  0
LINE
  8
_0-7_5-4図補助2
  6
CONTINUOUS
 62
    7
 10
87.701334422241032
 20
32.001986160121447
 11
86.835540908761857
 21
32.001986160121447
  0
LINE
  8
_0-7_5-4図補助2
  6
CONTINUOUS
 62
    7
 10
86.561702302730453
 20
31.728147554090555
 11
86.561702302730453
 21
29.971341427384033
  0
LINE
  8
_0-7_5-4図補助2
  6
CONTINUOUS
 62
    7
 10
90.206969236792972
 20
26.40310871572305
 11
90.206969236792972
 21
27.193518723909818
  0
LINE
  8
_0-7_5-4図補助2
  6
CONTINUOUS
 62
    7
 10
89.933130630761923
 20
27.467357329940882
 11
88.249011634303486
 21
27.467357329940882
  0
LINE
  8
_0-7_5-4図補助2
  6
CONTINUOUS
 62
    7
 10
85.124496942374151
 20
28.5080916688066
 11
86.287863696699389
 21
28.5080916688066
  0
LINE
  8
_0-7_5-4図補助2
  6
CONTINUOUS
 62
    7
 10
89.835002995518082
 20
28.781930274837663
 11
89.835002995518082
 21
29.423664215321736
  0
LINE
  8
_0-7_5-4図補助2
  6
CONTINUOUS
 62
    7
 10
89.561164389486692
 20
29.69750282135297
 11
88.249011634303486
 21
29.697502821352799
  0
LINE
  8
_0-7_5-4図補助2
  6
CONTINUOUS
 62
    7
 10
83.785419217262358
 20
26.054931889345681
 11
84.999444956766112
 21
26.054931889345681
  0
LINE
  8
_0-7_5-4図補助2
  6
CONTINUOUS
 62
    7
 10
83.511580611230954
 20
29.325811719623147
 11
83.511580611230954
 21
26.328770495376915
  0
LINE
  8
_0-7_5-4図補助2
  6
CONTINUOUS
 62
    7
 10
82.0237162656951
 20
27.244342668902817
 11
82.710800850063322
 21
26.3517933529441
  0
LINE
  8
_0-7_5-4図補助2
  6
CONTINUOUS
 62
    7
 10
82.767648128680491
 20
26.184753399698394
 11
82.767648128680491
 21
25.311550058874758
  0
LINE
  8
_0-7_5-4図補助2
  6
CONTINUOUS
 62
    7
 10
82.767648128680491
 20
25.311550058874758
 11
82.29755487172649
 21
25.311550058874758
  0
LINE
  8
_0-7_5-4図補助2
  6
CONTINUOUS
 62
    7
 10
78.899201573766447
 20
22.561037771019556
 11
79.595629999753953
 21
22.561037771019556
  0
LINE
  8
_0-7_5-4図補助2
  6
CONTINUOUS
 62
    7
 10
79.799105219240289
 20
22.651613131395351
 11
80.387065919301961
 21
23.304419601490139
  0
LINE
  8
_0-7_5-4図補助2
  6
CONTINUOUS
 62
    7
 10
80.387065919301961
 20
23.304419601490139
 11
80.684638540582966
 21
23.861955881095724
  0
LINE
  8
_0-7_5-4図補助2
  6
CONTINUOUS
 62
    7
 10
78.899201573766447
 20
22.561037771019556
 11
78.899201573766447
 21
24.960579706316793
  0
LINE
  8
_0-7_5-4図補助2
  6
CONTINUOUS
 62
    7
 10
79.092562578657805
 20
25.222325647771498
 11
79.762823146239214
 21
25.428407019339346
  0
LINE
  8
_0-7_5-4図補助2
  6
CONTINUOUS
 62
    7
 10
79.920060619370986
 20
25.554215013121706
 11
80.163886298449768
 21
25.980593668999717
  0
LINE
  8
_0-7_5-4図補助2
  6
CONTINUOUS
 62
    7
 10
80.163886298449768
 20
25.980593668999717
 11
80.684638540582966
 21
27.095666601200293
  0
LINE
  8
_0-7_5-4図補助2
  6
CONTINUOUS
 62
    7
 10
80.95847714661403
 20
21.148612330424186
 11
81.749877659664037
 21
21.148612330424186
  0
LINE
  8
_0-7_5-4図補助2
  6
CONTINUOUS
 62
    7
 10
82.0237162656951
 20
21.42245093645576
 11
82.0237162656951
 21
25.037711452843695
  0
LINE
  8
_0-7_5-4図補助2
  6
CONTINUOUS
 62
    7
 10
81.749877659664037
 20
32.076324380467753
 11
80.95847714661403
 21
32.076324380467753
  0
LINE
  8
_0-7_5-4図補助2
  6
CONTINUOUS
 62
    7
 10
80.684638540582966
 20
31.802485774436349
 11
80.684638540582966
 21
29.897003207038068
  0
LINE
  8
_0-7_5-4図補助2
  6
CONTINUOUS
 62
    7
 10
79.321826800220549
 20
28.433753821449528
 11
80.410799934551562
 21
28.433753821449528
  0
LINE
  8
_0-7_5-4図補助2
  6
CONTINUOUS
 62
    7
 10
82.618862127822524
 20
28.707592427480762
 11
82.618862127822524
 21
29.349325994975601
  0
LINE
  8
_0-7_5-4図補助2
  6
CONTINUOUS
 62
    7
 10
82.345023521791461
 20
29.623164601007005
 11
82.29755487172649
 21
29.623164601007005
  0
LINE
  8
_0-7_5-4図補助2
  6
CONTINUOUS
 62
    7
 10
79.047988194189145
 20
29.349325994975601
 11
79.047988194189145
 21
28.707592427480762
  0
LINE
  8
_0-7_5-4図補助2
  6
CONTINUOUS
 62
    7
 10
80.684638540582966
 20
23.861955881095724
 11
80.684638540582966
 21
21.42245093645576
  0
LINE
  8
_0-7_5-4図補助2
  6
CONTINUOUS
 62
    7
 10
82.0237162656951
 20
27.244342668902817
 11
82.0237162656951
 21
28.159915215418295
  0
LINE
  8
_0-7_5-4図補助2
  6
CONTINUOUS
 62
    7
 10
82.0237162656951
 20
29.897003207038068
 11
82.0237162656951
 21
31.802485774436349
  0
LINE
  8
_0-7_5-4図補助2
  6
CONTINUOUS
 62
    7
 10
80.684638540582966
 20
28.159915215418295
 11
80.684638540582966
 21
27.095666601200293
  0
LINE
  8
_0-7_5-4図補助2
  6
CONTINUOUS
 62
    7
 10
80.410799934551562
 20
29.623164601007005
 11
79.321826800220549
 21
29.623164601007005
  0
LINE
  8
_0-7_5-4図補助2
  6
CONTINUOUS
 62
    7
 10
82.29755487172649
 20
28.433753821449528
 11
82.345023521791461
 21
28.433753821449528
  0
LINE
  8
_0-7_5-4図補助2
  6
CONTINUOUS
 62
    7
 10
84.850658336343088
 20
27.741195935971945
 11
84.850658336343088
 21
28.234253062775196
  0
LINE
  8
_0-7_5-4図補助2
  6
CONTINUOUS
 62
    7
 10
86.240395046634774
 20
26.129270109691646
 11
86.287863696699389
 21
26.129270109691646
  0
LINE
  8
_0-7_5-4図補助2
  6
CONTINUOUS
 62
    7
 10
89.239857752955402
 20
26.129270109691646
 11
89.933130630761923
 21
26.129270109691646
  0
LINE
  8
_0-7_5-4図補助2
  6
CONTINUOUS
 62
    7
 10
86.287863696699389
 20
27.467357329940882
 11
85.124496942374151
 21
27.467357329940882
  0
LINE
  8
_0-7_5-4図補助2
  6
CONTINUOUS
 62
    7
 10
87.975173028272422
 20
26.129270109691646
 11
87.998907043522024
 21
26.129270109691646
  0
LINE
  8
_0-7_5-4図補助2
  6
CONTINUOUS
 62
    7
 10
88.249011634303486
 20
28.5080916688066
 11
89.561164389486692
 21
28.5080916688066
  0
LINE
  8
_0-7_5-4図補助2
  6
CONTINUOUS
 62
    7
 10
86.561702302730453
 20
28.234253062775196
 11
86.561702302730453
 21
27.741195935972286
  0
LINE
  8
_0-7_5-4図補助2
  6
CONTINUOUS
 62
    7
 10
87.975173028272422
 20
29.971341427384203
 11
87.975173028272422
 21
31.728147554090555
  0
LINE
  8
_0-7_5-4図補助2
  6
CONTINUOUS
 62
    7
 10
86.561702302730453
 20
25.855431503660242
 11
86.561702302730453
 21
21.148612330424186
  0
LINE
  8
_0-7_5-4図補助2
  6
CONTINUOUS
 62
    7
 10
87.975173028272422
 20
27.741195935972286
 11
87.975173028272422
 21
28.234253062775196
  0
LINE
  8
_0-7_5-4図補助2
  6
CONTINUOUS
 62
    7
 10
86.287863696699389
 20
29.697502821352799
 11
85.868428805359542
 21
29.697502821352799
  0
ARC
  8
_0-7_5-4図補助2
  6
CONTINUOUS
 62
    7
 10
85.124496942374151
 20
28.234253062775196
 40
0.2738386060312498
 50
90
 51
180
  0
ARC
  8
_0-7_5-4図補助2
  6
CONTINUOUS
 62
    7
 10
86.287863696699389
 20
28.234253062775196
 40
0.2738386060312498
 50
0
 51
90
  0
ARC
  8
_0-7_5-4図補助2
  6
CONTINUOUS
 62
    7
 10
86.287863696699389
 20
27.741195935972286
 40
0.2738386060312498
 50
270
 51
0
  0
ARC
  8
_0-7_5-4図補助2
  6
CONTINUOUS
 62
    7
 10
85.124496942374151
 20
27.741195935971945
 40
0.2738386060312498
 50
180
 51
270
  0
ARC
  8
_0-7_5-4図補助2
  6
CONTINUOUS
 62
    7
 10
88.249011634303486
 20
28.234253062775196
 40
0.2738386060312498
 50
90
 51
180
  0
ARC
  8
_0-7_5-4図補助2
  6
CONTINUOUS
 62
    7
 10
88.249011634303486
 20
27.741195935972286
 40
0.2738386060312498
 50
180
 51
270
  0
ARC
  8
_0-7_5-4図補助2
  6
CONTINUOUS
 62
    7
 10
88.249011634303486
 20
29.971341427384203
 40
0.2738386060312498
 50
180
 51
270
  0
ARC
  8
_0-7_5-4図補助2
  6
CONTINUOUS
 62
    7
 10
86.287863696699389
 20
29.971341427384033
 40
0.2738386060312498
 50
270
 51
0
  0
ARC
  8
_0-7_5-4図補助2
  6
CONTINUOUS
 62
    7
 10
84.45495807981824
 20
31.207780384657866
 40
0.2738386060312498
 50
90
 51
180
  0
ARC
  8
_0-7_5-4図補助2
  6
CONTINUOUS
 62
    7
 10
85.320751593297075
 20
31.207780384657866
 40
0.2738386060312498
 50
0
 51
90
  0
ARC
  8
_0-7_5-4図補助2
  6
CONTINUOUS
 62
    7
 10
85.868428805359542
 20
29.971341427384033
 40
0.2738386060312498
 50
180
 51
270
  0
ARC
  8
_0-7_5-4図補助2
  6
CONTINUOUS
 62
    7
 10
86.835540908761857
 20
31.728147554090555
 40
0.2738386060312498
 50
90
 51
180
  0
ARC
  8
_0-7_5-4図補助2
  6
CONTINUOUS
 62
    7
 10
87.701334422241032
 20
31.728147554090555
 40
0.2738386060312498
 50
0
 51
90
  0
ARC
  8
_0-7_5-4図補助2
  6
CONTINUOUS
 62
    7
 10
89.933130630761923
 20
27.193518723909818
 40
0.2738386060312498
 50
0
 51
90
  0
ARC
  8
_0-7_5-4図補助2
  6
CONTINUOUS
 62
    7
 10
88.010747863225262
 20
25.764726472030105
 40
0.3647358890630912
 50
14.399822333355321
 51
91.860382374963379
  0
ARC
  8
_0-7_5-4図補助2
  6
CONTINUOUS
 62
    7
 10
86.240395046634774
 20
25.855431503660242
 40
0.2738386060312498
 50
90
 51
180
  0
ARC
  8
_0-7_5-4図補助2
  6
CONTINUOUS
 62
    7
 10
86.287863696699389
 20
25.855431503660242
 40
0.2738386060312498
 50
0
 51
90
  0
ARC
  8
_0-7_5-4図補助2
  6
CONTINUOUS
 62
    7
 10
82.29755487172649
 20
29.897003207038068
 40
0.2738386060312498
 50
180
 51
270
  0
ARC
  8
_0-7_5-4図補助2
  6
CONTINUOUS
 62
    7
 10
80.410799934551562
 20
29.897003207038068
 40
0.2738386060312498
 50
270
 51
0
  0
ARC
  8
_0-7_5-4図補助2
  6
CONTINUOUS
 62
    7
 10
79.321826800220549
 20
29.349325994975601
 40
0.2738386060312498
 50
90
 51
180
  0
ARC
  8
_0-7_5-4図補助2
  6
CONTINUOUS
 62
    7
 10
79.321826800220549
 20
28.707592427480762
 40
0.2738386060312498
 50
180
 51
270
  0
ARC
  8
_0-7_5-4図補助2
  6
CONTINUOUS
 62
    7
 10
80.410799934551562
 20
28.159915215418295
 40
0.2738386060312498
 50
0
 51
90
  0
ARC
  8
_0-7_5-4図補助2
  6
CONTINUOUS
 62
    7
 10
82.29755487172649
 20
28.159915215418295
 40
0.2738386060312498
 50
90
 51
180
  0
ARC
  8
_0-7_5-4図補助2
  6
CONTINUOUS
 62
    7
 10
82.345023521791461
 20
28.707592427480762
 40
0.2738386060312498
 50
270
 51
0
  0
ARC
  8
_0-7_5-4図補助2
  6
CONTINUOUS
 62
    7
 10
82.345023521791461
 20
29.349325994975601
 40
0.2738386060312498
 50
0
 51
90
  0
ARC
  8
_0-7_5-4図補助2
  6
CONTINUOUS
 62
    7
 10
80.95847714661403
 20
31.802485774436349
 40
0.2738386060312498
 50
90
 51
180
  0
ARC
  8
_0-7_5-4図補助2
  6
CONTINUOUS
 62
    7
 10
81.749877659664037
 20
31.802485774436349
 40
0.2738386060312498
 50
0
 51
90
  0
ARC
  8
_0-7_5-4図補助2
  6
CONTINUOUS
 62
    7
 10
82.29755487172649
 20
25.037711452843695
 40
0.2738386060312498
 50
90
 51
180
  0
ARC
  8
_0-7_5-4図補助2
  6
CONTINUOUS
 62
    7
 10
82.493809522649428
 20
26.184753399698394
 40
0.2738386060312498
 50
0
 51
37.589081431229623
  0
ARC
  8
_0-7_5-4図補助2
  6
CONTINUOUS
 62
    7
 10
79.595629999753953
 20
22.83487637705079
 40
0.2738386060312498
 50
270
 51
317.99170694289438
  0
ARC
  8
_0-7_5-4図補助2
  6
CONTINUOUS
 62
    7
 10
79.682345545099849
 20
25.690152960794052
 40
0.2738386060312498
 50
287.09080786876513
 51
330.23681378790928
  0
ARC
  8
_0-7_5-4図補助2
  6
CONTINUOUS
 62
    7
 10
80.95847714661403
 20
21.42245093645576
 40
0.2738386060312498
 50
180
 51
270
  0
ARC
  8
_0-7_5-4図補助2
  6
CONTINUOUS
 62
    7
 10
81.749877659664037
 20
21.42245093645576
 40
0.2738386060312498
 50
270
 51
0
  0
ARC
  8
_0-7_5-4図補助2
  6
CONTINUOUS
 62
    7
 10
79.173040179797169
 20
24.960579706316793
 40
0.2738386060312498
 50
107.0908078687651
 51
180
  0
ARC
  8
_0-7_5-4図補助2
  6
CONTINUOUS
 62
    7
 10
90.396055389097071
 20
22.825526596607205
 40
1.825590706874999
 50
201.0517348573519
 51
270
  0
ARC
  8
_0-7_5-4図補助2
  6
CONTINUOUS
 62
    7
 10
82.027394001362666
 20
24.038444849057413
 40
3.9423703683780045
 50
349.46625350736838
 51
357.68846349851395
  0
ARC
  8
_0-7_5-4図補助2
  6
CONTINUOUS
 62
    7
 10
84.463624280298063
 20
23.585431894834571
 40
1.4643795070761889
 50
335.95566131292765
 51
349.4662535073432
  0
ARC
  8
_0-7_5-4図補助2
  6
CONTINUOUS
 62
    7
 10
75.452974153961691
 20
27.605589869336967
 40
11.331166513959481
 50
332.46928097731978
 51
335.95566131299006
  0
ARC
  8
_0-7_5-4図補助2
  6
CONTINUOUS
 62
    7
 10
83.866181909810322
 20
23.220216434151425
 40
1.8436186269075976
 50
323.81916247763638
 51
332.46928097723367
  0
ARC
  8
_0-7_5-4図補助2
  6
CONTINUOUS
 62
    7
 10
83.635390923283467
 20
23.38901139676409
 40
2.1295490710114864
 50
318.34536446037669
 51
323.81916247771932
  0
ARC
  8
_0-7_5-4図補助2
  6
CONTINUOUS
 62
    7
 10
78.204848109154398
 20
28.219741117591923
 40
9.3977500101557929
 50
315.7404535103729
 51
318.34536446037771
  0
ARC
  8
_0-7_5-4図補助2
  6
CONTINUOUS
 62
    7
 10
83.965095741146627
 20
22.606485452214642
 40
1.3547970731579499
 50
301.83005643535864
 51
315.74045351033249
  0
ARC
  8
_0-7_5-4図補助2
  6
CONTINUOUS
 62
    7
 10
83.089830237521724
 20
24.016492085055859
 40
3.0143778655546307
 50
292.51707238056935
 51
301.8300564353641
  0
ARC
  8
_0-7_5-4図補助2
  6
CONTINUOUS
 62
    7
 10
62.075323013213335
 20
19.199899798822486
 40
26.654233173143346
 50
8.7963742400442886
 51
9.4997945689576024
  0
ARC
  8
_0-7_5-4図補助2
  6
CONTINUOUS
 62
    7
 10
76.105309939591109
 20
21.370947421393453
 40
12.457262336595051
 50
7.7674347987295516
 51
8.7963742400551137
  0
ARC
  8
_0-7_5-4図補助2
  6
CONTINUOUS
 62
    7
 10
55.755184833097104
 20
18.595109554941757
 40
32.995832581643384
 50
7.418932104451132
 51
7.7674347986533929
  0
ARC
  8
_0-7_5-4図補助2
  6
CONTINUOUS
 62
    7
 10
116.36116738976823
 20
26.486816931234571
 40
28.121793083728779
 50
187.41893210467262
 51
187.79642979367767
  0
ARC
  8
_0-7_5-4図補助2
  6
CONTINUOUS
 62
    7
 10
89.363668279503941
 20
22.790333389462489
 40
0.8724087093376256
 50
187.79642979368802
 51
201.01968500954698
  0
ARC
  8
_0-7_5-4図補助2
  6
CONTINUOUS
 62
    7
 10
90.87177721199194
 20
23.369836734824219
 40
2.4880252107189182
 50
201.01968500959453
 51
208.83855085649876
  0
LINE
  8
_0-7_5-4図補助2
  6
CONTINUOUS
 62
    7
 10
99.69518106355433
 20
24.207856963963508
 11
99.168935801701252
 21
27.823117480351783
  0
LINE
  8
_0-7_5-4図補助2
  6
CONTINUOUS
 62
    7
 10
98.302144883415792
 20
32.150662600813547
 11
97.051144482778071
 21
32.150662600813547
  0
LINE
  8
_0-7_5-4図補助2
  6
CONTINUOUS
 62
    7
 10
97.051144482778071
 20
32.150662600813547
 11
97.29157090340702
 21
29.851140951465396
  0
LINE
  8
_0-7_5-4図補助2
  6
CONTINUOUS
 62
    7
 10
98.092649586609184
 20
22.189346669289733
 11
98.390222207890531
 21
21.668979499857045
  0
LINE
  8
_0-7_5-4図補助2
  6
CONTINUOUS
 62
    7
 10
98.390222207890531
 20
21.668979499857045
 11
98.985368070017614
 21
21.44596483881881
  0
LINE
  8
_0-7_5-4図補助2
  6
CONTINUOUS
 62
    7
 10
98.985368070017614
 20
21.44596483881881
 11
102.33306238279916
 21
21.44596483881881
  0
LINE
  8
_0-7_5-4図補助2
  6
CONTINUOUS
 62
    7
 10
102.33306238279916
 20
21.44596483881881
 11
102.33306238279916
 21
23.973463211614757
  0
LINE
  8
_0-7_5-4図補助2
  6
CONTINUOUS
 62
    7
 10
102.33306238279916
 20
23.973463211614757
 11
99.966163877901124
 21
23.973463211614927
  0
LINE
  8
_0-7_5-4図補助2
  6
CONTINUOUS
 62
    7
 10
92.661945066165742
 20
24.047801058971658
 11
93.390610879942912
 21
24.142774164667145
  0
LINE
  8
_0-7_5-4図補助2
  6
CONTINUOUS
 62
    7
 10
95.37904237428431
 20
24.507359147909682
 11
95.637673757236769
 21
24.568168601393239
  0
LINE
  8
_0-7_5-4図補助2
  6
CONTINUOUS
 62
    7
 10
95.637673757236769
 20
24.568168601393239
 11
96.035220169432648
 21
24.820965638953254
  0
LINE
  8
_0-7_5-4図補助2
  6
CONTINUOUS
 62
    7
 10
96.455998620651314
 20
24.589889322448101
 11
96.455998620651314
 21
24.047801058971658
  0
LINE
  8
_0-7_5-4図補助2
  6
CONTINUOUS
 62
    7
 10
96.455998620651314
 20
24.047801058971658
 11
95.953822119411882
 21
23.044190885428776
  0
LINE
  8
_0-7_5-4図補助2
  6
CONTINUOUS
 62
    7
 10
95.246308253599921
 20
22.287264867344646
 11
94.116867357473623
 21
21.623379375265785
  0
LINE
  8
_0-7_5-4図補助2
  6
CONTINUOUS
 62
    7
 10
91.397260961047152
 20
21.37162699146208
 11
93.191765005373384
 21
21.37162699146208
  0
LINE
  8
_0-7_5-4図補助2
  6
CONTINUOUS
 62
    7
 10
92.661945066165742
 20
24.047801058971658
 11
91.671099567078201
 21
24.047801058971658
  0
LINE
  8
_0-7_5-4図補助2
  6
CONTINUOUS
 62
    7
 10
91.397260961047152
 20
23.773962452940424
 11
91.397260961047152
 21
21.37162699146208
  0
LINE
  8
_0-7_5-4図補助2
  6
CONTINUOUS
 62
    7
 10
95.042527895109671
 20
24.77392868307615
 11
95.042527895109671
 21
25.632417215611582
  0
LINE
  8
_0-7_5-4図補助2
  6
CONTINUOUS
 62
    7
 10
93.629057169567702
 20
25.632417215611582
 11
93.629057169567702
 21
24.414315995869259
  0
LINE
  8
_0-7_5-4図補助2
  6
CONTINUOUS
 62
    7
 10
92.415031430063607
 20
25.906255821642816
 11
93.355218563536653
 21
25.906255821642816
  0
LINE
  8
_0-7_5-4図補助2
  6
CONTINUOUS
 62
    7
 10
96.307212619792992
 20
26.180094427674049
 11
96.307212619792992
 21
26.970504062871754
  0
LINE
  8
_0-7_5-4図補助2
  6
CONTINUOUS
 62
    7
 10
96.033374013761602
 20
27.244342668902817
 11
92.415031430063607
 21
27.244342668902817
  0
LINE
  8
_0-7_5-4図補助2
  6
CONTINUOUS
 62
    7
 10
92.141192824032544
 20
26.970504062871754
 11
92.141192824032544
 21
26.180094427674049
  0
LINE
  8
_0-7_5-4図補助2
  6
CONTINUOUS
 62
    7
 10
91.522312946655518
 20
28.136400940065499
 11
97.22415538000196
 21
28.136400940065499
  0
LINE
  8
_0-7_5-4図補助2
  6
CONTINUOUS
 62
    7
 10
101.73791652067136
 20
28.410239546096903
 11
101.73791652067136
 21
29.274987774629636
  0
LINE
  8
_0-7_5-4図補助2
  6
CONTINUOUS
 62
    7
 10
101.46407791464065
 20
29.54882638066087
 11
99.154601768470741
 21
29.54882638066087
  0
LINE
  8
_0-7_5-4図補助2
  6
CONTINUOUS
 62
    7
 10
91.248474340624114
 20
29.274987774629636
 11
91.248474340624114
 21
28.410239546096903
  0
LINE
  8
_0-7_5-4図補助2
  6
CONTINUOUS
 62
    7
 10
100.22631815988656
 20
30.366546431477587
 11
101.16650529335925
 21
30.366546431477587
  0
LINE
  8
_0-7_5-4図補助2
  6
CONTINUOUS
 62
    7
 10
101.44034389939036
 20
30.640385037508821
 11
101.44034389939036
 21
31.876823994782143
  0
LINE
  8
_0-7_5-4図補助2
  6
CONTINUOUS
 62
    7
 10
101.16650529335925
 20
32.150662600813547
 11
100.22631815988656
 21
32.150662600813547
  0
LINE
  8
_0-7_5-4図補助2
  6
CONTINUOUS
 62
    7
 10
99.952479553855198
 20
31.876823994782143
 11
99.952479553855198
 21
30.640385037508821
  0
LINE
  8
_0-7_5-4図補助2
  6
CONTINUOUS
 62
    7
 10
95.316366501140763
 20
25.906255821642816
 11
96.033374013761602
 21
25.906255821642816
  0
LINE
  8
_0-7_5-4図補助2
  6
CONTINUOUS
 62
    7
 10
97.019216902915957
 20
29.54882638066087
 11
91.522312946655518
 21
29.54882638066087
  0
LINE
  8
_0-7_5-4図補助2
  6
CONTINUOUS
 62
    7
 10
99.439918616048047
 20
28.136400940065499
 11
101.46407791464065
 21
28.136400940065499
  0
LINE
  8
_0-7_5-4図補助2
  6
CONTINUOUS
 62
    7
 10
98.883618954124302
 20
29.783220133009621
 11
98.573127697762573
 21
31.916268848464966
  0
LINE
  8
_0-7_5-4図補助2
  6
CONTINUOUS
 62
    7
 10
97.496509380492341
 20
27.891038298807388
 11
98.092649586609184
 21
22.189346669289733
  0
ARC
  8
_0-7_5-4図補助2
  6
CONTINUOUS
 62
    7
 10
101.16650529335925
 20
31.876823994782143
 40
0.2738386060312498
 50
0
 51
90
  0
ARC
  8
_0-7_5-4図補助2
  6
CONTINUOUS
 62
    7
 10
100.22631815988656
 20
31.876823994782143
 40
0.2738386060312498
 50
90
 51
180
  0
ARC
  8
_0-7_5-4図補助2
  6
CONTINUOUS
 62
    7
 10
100.22631815988656
 20
30.640385037508821
 40
0.2738386060312498
 50
180
 51
270
  0
ARC
  8
_0-7_5-4図補助2
  6
CONTINUOUS
 62
    7
 10
101.16650529335925
 20
30.640385037508821
 40
0.2738386060312498
 50
270
 51
0
  0
ARC
  8
_0-7_5-4図補助2
  6
CONTINUOUS
 62
    7
 10
98.302144883415792
 20
31.876823994782143
 40
0.2738386060312498
 50
8.2819328958122753
 51
90
  0
ARC
  8
_0-7_5-4図補助2
  6
CONTINUOUS
 62
    7
 10
99.154601768470741
 20
29.822664986692274
 40
0.2738386060312498
 50
188.28193289580904
 51
270
  0
ARC
  8
_0-7_5-4図補助2
  6
CONTINUOUS
 62
    7
 10
101.46407791464065
 20
29.274987774629636
 40
0.2738386060312498
 50
0
 51
90
  0
ARC
  8
_0-7_5-4図補助2
  6
CONTINUOUS
 62
    7
 10
101.46407791464065
 20
28.410239546096903
 40
0.2738386060312498
 50
270
 51
0
  0
ARC
  8
_0-7_5-4図補助2
  6
CONTINUOUS
 62
    7
 10
99.439918616048047
 20
27.862562334034436
 40
0.2738386060312498
 50
90
 51
188.28193289580904
  0
ARC
  8
_0-7_5-4図補助2
  6
CONTINUOUS
 62
    7
 10
99.966163877901124
 20
24.247301817646161
 40
0.2738386060312498
 50
188.28193289580904
 51
270
  0
ARC
  8
_0-7_5-4図補助2
  6
CONTINUOUS
 62
    7
 10
97.22415538000196
 20
27.862562334034436
 40
0.2738386060312498
 50
5.9688715858570882
 51
90
  0
ARC
  8
_0-7_5-4図補助2
  6
CONTINUOUS
 62
    7
 10
97.019216902915957
 20
29.822664986692274
 40
0.2738386060312498
 50
270
 51
5.9688715858570776
  0
ARC
  8
_0-7_5-4図補助2
  6
CONTINUOUS
 62
    7
 10
93.355218563536653
 20
25.632417215611582
 40
0.2738386060312498
 50
0
 51
90
  0
ARC
  8
_0-7_5-4図補助2
  6
CONTINUOUS
 62
    7
 10
93.355218563536653
 20
24.414315995869259
 40
0.2738386060312498
 50
277.42597560167633
 51
0
  0
ARC
  8
_0-7_5-4図補助2
  6
CONTINUOUS
 62
    7
 10
95.316366501140763
 20
25.632417215611582
 40
0.2738386060312498
 50
90
 51
180
  0
ARC
  8
_0-7_5-4図補助2
  6
CONTINUOUS
 62
    7
 10
95.316366501140763
 20
24.77392868307615
 40
0.2738386060312498
 50
180
 51
283.23107565297681
  0
ARC
  8
_0-7_5-4図補助2
  6
CONTINUOUS
 62
    7
 10
92.415031430063607
 20
26.180094427674049
 40
0.2738386060312498
 50
180
 51
270
  0
ARC
  8
_0-7_5-4図補助2
  6
CONTINUOUS
 62
    7
 10
92.415031430063607
 20
26.970504062871754
 40
0.2738386060312498
 50
90
 51
180
  0
ARC
  8
_0-7_5-4図補助2
  6
CONTINUOUS
 62
    7
 10
96.033374013761602
 20
26.970504062871754
 40
0.2738386060312498
 50
0
 51
90
  0
ARC
  8
_0-7_5-4図補助2
  6
CONTINUOUS
 62
    7
 10
96.033374013761602
 20
26.180094427674049
 40
0.2738386060312498
 50
270
 51
0
  0
ARC
  8
_0-7_5-4図補助2
  6
CONTINUOUS
 62
    7
 10
91.522312946655518
 20
28.410239546096903
 40
0.2738386060312498
 50
180
 51
270
  0
ARC
  8
_0-7_5-4図補助2
  6
CONTINUOUS
 62
    7
 10
91.522312946655518
 20
29.274987774629636
 40
0.2738386060312498
 50
90
 51
180
  0
ARC
  8
_0-7_5-4図補助2
  6
CONTINUOUS
 62
    7
 10
89.561164389486692
 20
29.423664215321736
 40
0.2738386060312498
 50
0
 51
90
  0
ARC
  8
_0-7_5-4図補助2
  6
CONTINUOUS
 62
    7
 10
89.561164389486692
 20
28.781930274837663
 40
0.2738386060312498
 50
270
 51
0
  0
ARC
  8
_0-7_5-4図補助2
  6
CONTINUOUS
 62
    7
 10
89.933130630761923
 20
26.40310871572305
 40
0.2738386060312498
 50
270
 51
0
  0
ARC
  8
_0-7_5-4図補助2
  6
CONTINUOUS
 62
    7
 10
83.785419217262358
 20
26.328770495376915
 40
0.2738386060312498
 50
180
 51
270
  0
ARC
  8
_0-7_5-4図補助2
  6
CONTINUOUS
 62
    7
 10
96.18216001461991
 20
24.589889322448101
 40
0.2738386060312498
 50
0
 51
122.45200096048549
  0
ARC
  8
_0-7_5-4図補助2
  6
CONTINUOUS
 62
    7
 10
91.671099567078201
 20
23.773962452940424
 40
0.2738386060312498
 50
90
 51
180
  0
ARC
  8
_0-7_5-4図補助2
  6
CONTINUOUS
 62
    7
 10
94.321205901499695
 20
23.861103190415889
 40
1.825590706874999
 50
300.4470173496008
 51
333.41798818886519
  0
ARC
  8
_0-7_5-4図補助2
  6
CONTINUOUS
 62
    7
 10
93.191765005373384
 20
23.197217698337198
 40
1.825590706874999
 50
270
 51
300.4470173496008
  0
LINE
  8
_0-7_5-4図補助2
  6
CONTINUOUS
 62
    7
 10
112.50119792631506
 20
28.954120990882217
 11
113.81335068149825
 21
28.954120990882217
  0
LINE
  8
_0-7_5-4図補助2
  6
CONTINUOUS
 62
    7
 10
114.08718928752965
 20
29.22795959691345
 11
114.08718928752965
 21
30.440884278834659
  0
LINE
  8
_0-7_5-4図補助2
  6
CONTINUOUS
 62
    7
 10
114.08718928752965
 20
30.440884278834659
 11
112.98375340772435
 21
30.440884278834659
  0
LINE
  8
_0-7_5-4図補助2
  6
CONTINUOUS
 62
    7
 10
107.17328986631395
 20
28.954120990882217
 11
110.81510907577996
 21
28.954120990882217
  0
LINE
  8
_0-7_5-4図補助2
  6
CONTINUOUS
 62
    7
 10
104.97067190033685
 20
30.440884278834659
 11
103.00260124535505
 21
30.440884278834659
  0
LINE
  8
_0-7_5-4図補助2
  6
CONTINUOUS
 62
    7
 10
103.00260124535505
 20
30.440884278834659
 11
103.00260124535505
 21
29.22795959691345
  0
LINE
  8
_0-7_5-4図補助2
  6
CONTINUOUS
 62
    7
 10
103.27643985138606
 20
28.954120990882217
 11
104.96055884784445
 21
28.954120990882217
  0
LINE
  8
_0-7_5-4図補助2
  6
CONTINUOUS
 62
    7
 10
112.47705871452355
 20
25.757579380950887
 11
113.73895768106915
 21
25.757579380950887
  0
LINE
  8
_0-7_5-4図補助2
  6
CONTINUOUS
 62
    7
 10
114.01279628710056
 20
26.031417986982291
 11
114.01279628710056
 21
26.747489774822924
  0
LINE
  8
_0-7_5-4図補助2
  6
CONTINUOUS
 62
    7
 10
113.73895768106915
 20
27.021328380854158
 11
103.79719209351966
 21
27.021328380854158
  0
LINE
  8
_0-7_5-4図補助2
  6
CONTINUOUS
 62
    7
 10
103.52335348748825
 20
26.747489774822924
 11
103.52335348748825
 21
26.031417986982291
  0
LINE
  8
_0-7_5-4図補助2
  6
CONTINUOUS
 62
    7
 10
103.79719209351966
 20
25.757579380950887
 11
104.76535047252206
 21
25.757579380950887
  0
LINE
  8
_0-7_5-4図補助2
  6
CONTINUOUS
 62
    7
 10
106.94547696873755
 20
25.601544179462934
 11
106.46253673837276
 21
24.588119510238101
  0
LINE
  8
_0-7_5-4図補助2
  6
CONTINUOUS
 62
    7
 10
106.70974098597246
 20
24.196477499663587
 11
110.82274434132266
 21
24.196477499663757
  0
LINE
  8
_0-7_5-4図補助2
  6
CONTINUOUS
 62
    7
 10
111.08603200623786
 20
24.545596831360655
 11
110.79626778757786
 21
25.559021500585317
  0
LINE
  8
_0-7_5-4図補助2
  6
CONTINUOUS
 62
    7
 10
105.00381538821256
 20
25.349122551272302
 11
103.83357170975586
 21
23.276133823899926
  0
LINE
  8
_0-7_5-4図補助2
  6
CONTINUOUS
 62
    7
 10
103.59774710748205
 20
22.378678999583457
 11
103.59774710748205
 21
22.017156326234243
  0
LINE
  8
_0-7_5-4図補助2
  6
CONTINUOUS
 62
    7
 10
103.87158571351345
 20
21.743317720202839
 11
113.14381181894205
 21
21.743317720202839
  0
LINE
  8
_0-7_5-4図補助2
  6
CONTINUOUS
 62
    7
 10
113.41765042497346
 20
22.017156326234243
 11
113.41765042497346
 21
22.510921202039043
  0
LINE
  8
_0-7_5-4図補助2
  6
CONTINUOUS
 62
    7
 10
113.23260961463275
 20
23.311781655556928
 11
112.23097623004325
 21
25.363611706891987
  0
LINE
  8
_0-7_5-4図補助2
  6
CONTINUOUS
 62
    7
 10
108.82643101929126
 20
30.886913600910447
 11
109.14356298407586
 21
30.886913600910447
  0
LINE
  8
_0-7_5-4図補助2
  6
CONTINUOUS
 62
    7
 10
109.45819786042026
 20
30.761127076305542
 11
110.99837991175485
 21
29.295371955311083
  0
LINE
  8
_0-7_5-4図補助2
  6
CONTINUOUS
 62
    7
 10
106.10456900031465
 20
30.835720361153079
 11
107.68903610746825
 21
32.091437188465903
  0
LINE
  8
_0-7_5-4図補助2
  6
CONTINUOUS
 62
    7
 10
107.85912067246466
 20
32.150662600813547
 11
109.95138050474606
 21
32.150662600813547
  0
LINE
  8
_0-7_5-4図補助2
  6
CONTINUOUS
 62
    7
 10
110.15108678418156
 20
32.06418723586043
 11
111.18585421645255
 21
30.961251821256411
  0
LINE
  8
_0-7_5-4図補助2
  6
CONTINUOUS
 62
    7
 10
111.18585421645255
 20
30.961251821256411
 11
112.38106597924026
 21
30.543236960196083
  0
LINE
  8
_0-7_5-4図補助2
  6
CONTINUOUS
 62
    7
 10
107.19268121633695
 20
25.757579380950887
 11
110.53298012266296
 21
25.757579380950887
  0
LINE
  8
_0-7_5-4図補助2
  6
CONTINUOUS
 62
    7
 10
105.23439745387556
 20
28.680282384850983
 11
105.23439745387556
 21
28.112887037702109
  0
LINE
  8
_0-7_5-4図補助2
  6
CONTINUOUS
 62
    7
 10
105.50823605990665
 20
27.839048431670534
 11
111.95352071425296
 21
27.839048431670534
  0
LINE
  8
_0-7_5-4図補助2
  6
CONTINUOUS
 62
    7
 10
112.22735932028365
 20
28.112887037702109
 11
112.22735932028365
 21
28.680282384850983
  0
ARC
  8
_0-7_5-4図補助2
  6
CONTINUOUS
 62
    7
 10
104.96055884784445
 20
28.680282384850983
 40
0.2738386060312498
 50
0
 51
90
  0
ARC
  8
_0-7_5-4図補助2
  6
CONTINUOUS
 62
    7
 10
105.50823605990665
 20
28.112887037702109
 40
0.2738386060312498
 50
180
 51
270
  0
ARC
  8
_0-7_5-4図補助2
  6
CONTINUOUS
 62
    7
 10
111.95352071425296
 20
28.112887037702109
 40
0.2738386060312498
 50
270
 51
0
  0
ARC
  8
_0-7_5-4図補助2
  6
CONTINUOUS
 62
    7
 10
112.50119792631506
 20
28.680282384850983
 40
0.2738386060312498
 50
90
 51
180
  0
ARC
  8
_0-7_5-4図補助2
  6
CONTINUOUS
 62
    7
 10
113.81335068149825
 20
29.22795959691345
 40
0.2738386060312498
 50
270
 51
0
  0
ARC
  8
_0-7_5-4図補助2
  6
CONTINUOUS
 62
    7
 10
103.27643985138606
 20
29.22795959691345
 40
0.2738386060312498
 50
180
 51
270
  0
ARC
  8
_0-7_5-4図補助2
  6
CONTINUOUS
 62
    7
 10
104.76535047252206
 20
25.483740774919482
 40
0.2738386060312498
 50
330.55440135877802
 51
90
  0
ARC
  8
_0-7_5-4図補助2
  6
CONTINUOUS
 62
    7
 10
107.19268121633695
 20
25.483740774919482
 40
0.2738386060312498
 50
90
 51
154.52020184160671
  0
ARC
  8
_0-7_5-4図補助2
  6
CONTINUOUS
 62
    7
 10
110.53298012266296
 20
25.483740774919482
 40
0.2738386060312498
 50
15.95659739516365
 51
90
  0
ARC
  8
_0-7_5-4図補助2
  6
CONTINUOUS
 62
    7
 10
112.47705871452355
 20
25.483740774919482
 40
0.2738386060312498
 50
90
 51
206.0200507388582
  0
ARC
  8
_0-7_5-4図補助2
  6
CONTINUOUS
 62
    7
 10
113.73895768106915
 20
26.031417986982291
 40
0.2738386060312498
 50
270
 51
0
  0
ARC
  8
_0-7_5-4図補助2
  6
CONTINUOUS
 62
    7
 10
103.79719209351966
 20
26.031417986982291
 40
0.2738386060312498
 50
180
 51
270
  0
ARC
  8
_0-7_5-4図補助2
  6
CONTINUOUS
 62
    7
 10
103.79719209351966
 20
26.747489774822924
 40
0.2738386060312498
 50
90
 51
180
  0
ARC
  8
_0-7_5-4図補助2
  6
CONTINUOUS
 62
    7
 10
113.73895768106915
 20
26.747489774822924
 40
0.2738386060312498
 50
0
 51
90
  0
ARC
  8
_0-7_5-4図補助2
  6
CONTINUOUS
 62
    7
 10
113.14381181894205
 20
22.017156326234243
 40
0.2738386060312498
 50
270
 51
0
  0
ARC
  8
_0-7_5-4図補助2
  6
CONTINUOUS
 62
    7
 10
103.87158571351345
 20
22.017156326234243
 40
0.2738386060312498
 50
180
 51
270
  0
ARC
  8
_0-7_5-4図補助2
  6
CONTINUOUS
 62
    7
 10
106.70974098597246
 20
24.470316105694991
 40
0.2738386060312498
 50
154.52020184160671
 51
270
  0
ARC
  8
_0-7_5-4図補助2
  6
CONTINUOUS
 62
    7
 10
110.82274434132266
 20
24.470316105694991
 40
0.2738386060312498
 50
270
 51
15.956597395163632
  0
ARC
  8
_0-7_5-4図補助2
  6
CONTINUOUS
 62
    7
 10
111.59205971809835
 20
22.510921202039043
 40
1.825590706874999
 50
0
 51
26.02005073885822
  0
ARC
  8
_0-7_5-4図補助2
  6
CONTINUOUS
 62
    7
 10
105.42333781435686
 20
22.378678999583457
 40
1.825590706874999
 50
150.55440135877791
 51
180
  0
ARC
  8
_0-7_5-4図補助2
  6
CONTINUOUS
 62
    7
 10
104.97067190033685
 20
32.266474985709777
 40
1.825590706874999
 50
270
 51
308.39741638428251
  0
ARC
  8
_0-7_5-4図補助2
  6
CONTINUOUS
 62
    7
 10
112.98375340772435
 20
32.266474985709777
 40
1.825590706874999
 50
250.72316200619514
 51
270
  0
ARC
  8
_0-7_5-4図補助2
  6
CONTINUOUS
 62
    7
 10
109.95138050474606
 20
31.876823994782143
 40
0.2738386060312498
 50
43.17354660855414
 51
90
  0
ARC
  8
_0-7_5-4図補助2
  6
CONTINUOUS
 62
    7
 10
107.85912067246466
 20
31.876823994782143
 40
0.2738386060312498
 50
90
 51
128.39741638428251
  0
LINE
  8
_0-7_5-4図補助2
  6
CONTINUOUS
 62
    7
 10
106.76576474553235
 20
29.379750035493515
 11
108.54295674429676
 21
30.788204580330756
  0
LINE
  8
_0-7_5-4図補助2
  6
CONTINUOUS
 62
    7
 10
110.92669188553636
 20
28.988789125387058
 11
110.81510907577996
 21
28.954120990882217
  0
LINE
  8
_0-7_5-4図補助2
  6
CONTINUOUS
 62
    7
 10
106.82498853121086
 20
29.062336203959575
 11
107.17328986631395
 21
28.954120990882217
  0
ARC
  8
_0-7_5-4図補助2
  6
CONTINUOUS
 62
    7
 10
108.82643101929126
 20
30.430515924191667
 40
0.4563976767187499
 50
90
 51
128.39741638428251
  0
ARC
  8
_0-7_5-4図補助2
  6
CONTINUOUS
 62
    7
 10
109.14356298407586
 20
30.430515924191667
 40
0.4563976767187499
 50
46.418352293405647
 51
90
  0
ARC
  8
_0-7_5-4図補助2
  6
CONTINUOUS
 62
    7
 10
106.87915445552986
 20
29.236674573038016
 40
0.1825590706874999
 50
128.39741638428248
 51
252.74028217410091
  0
ARC
  8
_0-7_5-4図補助2
  6
CONTINUOUS
 62
    7
 10
110.87252596121736
 20
29.16312749446567
 40
0.1825590706874999
 50
287.25971782589909
 51
46.418352293405619
  0
LINE
  8
_0-7_5-4図補助2
  6
CONTINUOUS
 62
    7
 10
118.92274794584606
 20
27.467357329940882
 11
118.75177966159175
 21
26.783989953056647
  0
LINE
  8
_0-7_5-4図補助2
  6
CONTINUOUS
 62
    7
 10
123.68391360373396
 20
24.61899254638692
 11
123.68391360373396
 21
27.565209825639641
  0
LINE
  8
_0-7_5-4図補助2
  6
CONTINUOUS
 62
    7
 10
123.95775220976466
 20
27.839048431670534
 11
125.19551196451876
 21
27.839048431670534
  0
LINE
  8
_0-7_5-4図補助2
  6
CONTINUOUS
 62
    7
 10
125.46935057055016
 20
28.112887037702109
 11
125.46935057055016
 21
29.126311333937878
  0
LINE
  8
_0-7_5-4図補助2
  6
CONTINUOUS
 62
    7
 10
125.19551196451876
 20
29.400149939968941
 11
123.95775220976466
 21
29.400149939968941
  0
LINE
  8
_0-7_5-4図補助2
  6
CONTINUOUS
 62
    7
 10
122.27044225862726
 20
27.565209825639641
 11
122.27044225862726
 21
24.61899254638692
  0
LINE
  8
_0-7_5-4図補助2
  6
CONTINUOUS
 62
    7
 10
116.49150613172326
 20
30.366546431477587
 11
115.40253299739186
 21
30.366546431477587
  0
LINE
  8
_0-7_5-4図補助2
  6
CONTINUOUS
 62
    7
 10
115.12869439136085
 20
30.092707825446013
 11
115.12869439136085
 21
29.153621376567656
  0
LINE
  8
_0-7_5-4図補助2
  6
CONTINUOUS
 62
    7
 10
115.40253299739186
 20
28.879782770536252
 11
117.79174659009585
 21
28.879782770536252
  0
LINE
  8
_0-7_5-4図補助2
  6
CONTINUOUS
 62
    7
 10
118.92274794584606
 20
27.467357329940882
 11
119.07153456626875
 21
28.954120990882217
  0
LINE
  8
_0-7_5-4図補助2
  6
CONTINUOUS
 62
    7
 10
117.93182012310116
 20
25.051622016729283
 11
118.26678104467956
 21
25.52326311734916
  0
LINE
  8
_0-7_5-4図補助2
  6
CONTINUOUS
 62
    7
 10
118.88996517547585
 20
26.47516438770711
 11
119.79627608949176
 21
25.998511832616117
  0
LINE
  8
_0-7_5-4図補助2
  6
CONTINUOUS
 62
    7
 10
119.86940906281995
 20
25.569740311843844
 11
119.14592756669826
 21
24.79118288944241
  0
LINE
  8
_0-7_5-4図補助2
  6
CONTINUOUS
 62
    7
 10
119.14592756669826
 20
24.79118288944241
 11
118.26678104467956
 21
25.52326311734916
  0
LINE
  8
_0-7_5-4図補助2
  6
CONTINUOUS
 62
    7
 10
114.88653183351465
 20
25.513922758726125
 11
116.09580587519805
 21
25.831917601296851
  0
LINE
  8
_0-7_5-4図補助2
  6
CONTINUOUS
 62
    7
 10
116.09580587519805
 20
25.831917601296851
 11
117.30661120457616
 21
26.168003481003296
  0
LINE
  8
_0-7_5-4図補助2
  6
CONTINUOUS
 62
    7
 10
117.48611674292725
 20
26.326476869053721
 11
117.80684984158576
 21
27.095666601200293
  0
LINE
  8
_0-7_5-4図補助2
  6
CONTINUOUS
 62
    7
 10
117.80684984158576
 20
27.095666601200293
 11
118.06152972692385
 21
28.558990557225655
  0
LINE
  8
_0-7_5-4図補助2
  6
CONTINUOUS
 62
    7
 10
114.68233514965675
 20
25.24908774437003
 11
114.68233514965675
 21
22.974058257643691
  0
LINE
  8
_0-7_5-4図補助2
  6
CONTINUOUS
 62
    7
 10
115.01351025716436
 20
22.706289499660983
 11
115.72384025348826
 21
22.858390279414522
  0
LINE
  8
_0-7_5-4図補助2
  6
CONTINUOUS
 62
    7
 10
115.72384025348826
 20
22.858390279414522
 11
116.69095173732546
 21
23.304419601490139
  0
LINE
  8
_0-7_5-4図補助2
  6
CONTINUOUS
 62
    7
 10
116.69095173732546
 20
23.304419601490139
 11
116.69095173732546
 21
21.348112716109284
  0
LINE
  8
_0-7_5-4図補助2
  6
CONTINUOUS
 62
    7
 10
116.96479034335655
 20
21.074274110078221
 11
117.60740485554825
 21
21.074274110078221
  0
LINE
  8
_0-7_5-4図補助2
  6
CONTINUOUS
 62
    7
 10
117.88124346157966
 20
21.348112716109284
 11
117.88124346157966
 21
24.893060715375469
  0
LINE
  8
_0-7_5-4図補助2
  6
CONTINUOUS
 62
    7
 10
119.06409523151515
 20
28.879782770536252
 11
119.07153456626875
 21
28.879782770536252
  0
LINE
  8
_0-7_5-4図補助2
  6
CONTINUOUS
 62
    7
 10
119.07153456626875
 20
28.879782770536252
 11
119.07153456626875
 21
30.092707825446013
  0
LINE
  8
_0-7_5-4図補助2
  6
CONTINUOUS
 62
    7
 10
118.79769596023806
 20
30.366546431477587
 11
118.22947506804026
 21
30.366546431477587
  0
LINE
  8
_0-7_5-4図補助2
  6
CONTINUOUS
 62
    7
 10
117.95563646200885
 20
30.640385037508821
 11
117.95563646200885
 21
31.876823994782143
  0
LINE
  8
_0-7_5-4図補助2
  6
CONTINUOUS
 62
    7
 10
117.68179785597745
 20
32.150662600813888
 11
117.03918334378605
 21
32.150662600813547
  0
LINE
  8
_0-7_5-4図補助2
  6
CONTINUOUS
 62
    7
 10
116.76534473775466
 20
31.876823994782143
 11
116.76534473775466
 21
30.640385037508821
  0
LINE
  8
_0-7_5-4図補助2
  6
CONTINUOUS
 62
    7
 10
121.99660365259615
 20
24.345153940355686
 11
119.29471418712126
 21
24.345153940355686
  0
LINE
  8
_0-7_5-4図補助2
  6
CONTINUOUS
 62
    7
 10
119.29471418712126
 20
24.345153940355686
 11
119.29471418712126
 21
22.284422344899639
  0
ARC
  8
_0-7_5-4図補助2
  6
CONTINUOUS
 62
    7
 10
120.20750954055886
 20
22.284422344899639
 40
0.9127953534374998
 50
180
 51
270
  0
LINE
  8
_0-7_5-4図補助2
  6
CONTINUOUS
 62
    7
 10
120.20750954055886
 20
21.37162699146208
 11
125.74684632180235
 21
21.37162699146208
  0
ARC
  8
_0-7_5-4図補助2
  6
CONTINUOUS
 62
    7
 10
125.74684632180235
 20
22.284422344899639
 40
0.9127953534374998
 50
270
 51
0
  0
LINE
  8
_0-7_5-4図補助2
  6
CONTINUOUS
 62
    7
 10
126.65964167523985
 20
22.284422344899639
 11
126.65964167523985
 21
24.345153940355686
  0
LINE
  8
_0-7_5-4図補助2
  6
CONTINUOUS
 62
    7
 10
126.65964167523985
 20
24.345153940355686
 11
123.95775220976466
 21
24.345153940355686
  0
LINE
  8
_0-7_5-4図補助2
  6
CONTINUOUS
 62
    7
 10
123.68391360373396
 20
29.673988546000345
 11
123.68391360373396
 21
31.951162215128448
  0
LINE
  8
_0-7_5-4図補助2
  6
CONTINUOUS
 62
    7
 10
123.41007499770225
 20
32.225000821159512
 11
122.54428086465866
 21
32.225000821159512
  0
LINE
  8
_0-7_5-4図補助2
  6
CONTINUOUS
 62
    7
 10
122.27044225862726
 20
31.951162215128448
 11
122.27044225862726
 21
29.673988546000345
  0
LINE
  8
_0-7_5-4図補助2
  6
CONTINUOUS
 62
    7
 10
121.99660365259615
 20
29.400149939968941
 11
120.61005789698346
 21
29.400149939968941
  0
LINE
  8
_0-7_5-4図補助2
  6
CONTINUOUS
 62
    7
 10
120.33621929095246
 20
29.126311333937878
 11
120.33621929095246
 21
28.112887037702109
  0
LINE
  8
_0-7_5-4図補助2
  6
CONTINUOUS
 62
    7
 10
120.61005789698346
 20
27.839048431670534
 11
121.99660365259615
 21
27.839048431670534
  0
ARC
  8
_0-7_5-4図補助2
  6
CONTINUOUS
 62
    7
 10
123.95775220976466
 20
24.61899254638692
 40
0.2738386060312498
 50
180
 51
270
  0
ARC
  8
_0-7_5-4図補助2
  6
CONTINUOUS
 62
    7
 10
121.99660365259615
 20
24.61899254638692
 40
0.2738386060312498
 50
270
 51
0
  0
ARC
  8
_0-7_5-4図補助2
  6
CONTINUOUS
 62
    7
 10
121.99660365259615
 20
27.565209825639641
 40
0.2738386060312498
 50
0
 51
90
  0
ARC
  8
_0-7_5-4図補助2
  6
CONTINUOUS
 62
    7
 10
123.95775220976466
 20
27.565209825639641
 40
0.2738386060312498
 50
90
 51
180
  0
ARC
  8
_0-7_5-4図補助2
  6
CONTINUOUS
 62
    7
 10
125.19551196451876
 20
28.112887037702109
 40
0.2738386060312498
 50
270
 51
0
  0
ARC
  8
_0-7_5-4図補助2
  6
CONTINUOUS
 62
    7
 10
120.61005789698346
 20
28.112887037702109
 40
0.2738386060312498
 50
180
 51
270
  0
ARC
  8
_0-7_5-4図補助2
  6
CONTINUOUS
 62
    7
 10
121.99660365259615
 20
29.673988546000345
 40
0.2738386060312498
 50
270
 51
0
  0
ARC
  8
_0-7_5-4図補助2
  6
CONTINUOUS
 62
    7
 10
123.95775220976466
 20
29.673988546000345
 40
0.2738386060312498
 50
180
 51
270
  0
ARC
  8
_0-7_5-4図補助2
  6
CONTINUOUS
 62
    7
 10
123.41007499770225
 20
31.951162215128448
 40
0.2738386060312498
 50
0
 51
90
  0
ARC
  8
_0-7_5-4図補助2
  6
CONTINUOUS
 62
    7
 10
122.54428086465866
 20
31.951162215128448
 40
0.2738386060312498
 50
90
 51
180
  0
ARC
  8
_0-7_5-4図補助2
  6
CONTINUOUS
 62
    7
 10
125.19551196451876
 20
29.126311333937878
 40
0.2738386060312498
 50
0
 51
90
  0
ARC
  8
_0-7_5-4図補助2
  6
CONTINUOUS
 62
    7
 10
120.61005789698346
 20
29.126311333937878
 40
0.2738386060312498
 50
90
 51
180
  0
ARC
  8
_0-7_5-4図補助2
  6
CONTINUOUS
 62
    7
 10
119.01743056226655
 20
26.717528075836043
 40
0.2738386060312498
 50
165.95377941329909
 51
242.25894694098531
  0
ARC
  8
_0-7_5-4図補助2
  6
CONTINUOUS
 62
    7
 10
119.66881070270095
 20
25.756148144487355
 40
0.2738386060312498
 50
317.09994893290121
 51
62.258946940985396
  0
ARC
  8
_0-7_5-4図補助2
  6
CONTINUOUS
 62
    7
 10
117.79174659009585
 20
28.605944164505189
 40
0.2738386060312498
 50
350.12701928279802
 51
90
  0
ARC
  8
_0-7_5-4図補助2
  6
CONTINUOUS
 62
    7
 10
117.23337034580355
 20
26.431865867029472
 40
0.2738386060312498
 50
285.51317457758893
 51
337.36507051243979
  0
ARC
  8
_0-7_5-4図補助2
  6
CONTINUOUS
 62
    7
 10
114.95617375568816
 20
25.24908774437003
 40
0.2738386060312498
 50
104.73314164097221
 51
180
  0
ARC
  8
_0-7_5-4図補助2
  6
CONTINUOUS
 62
    7
 10
114.95617375568816
 20
22.974058257643691
 40
0.2738386060312498
 50
180
 51
282.08605840759498
  0
ARC
  8
_0-7_5-4図補助2
  6
CONTINUOUS
 62
    7
 10
116.96479034335655
 20
21.348112716109284
 40
0.2738386060312498
 50
180
 51
270
  0
ARC
  8
_0-7_5-4図補助2
  6
CONTINUOUS
 62
    7
 10
117.60740485554825
 20
21.348112716109284
 40
0.2738386060312498
 50
270
 51
0
  0
ARC
  8
_0-7_5-4図補助2
  6
CONTINUOUS
 62
    7
 10
118.15508206761106
 20
24.893060715375469
 40
0.2738386060312498
 50
144.61751624754129
 51
180
  0
ARC
  8
_0-7_5-4図補助2
  6
CONTINUOUS
 62
    7
 10
115.40253299739186
 20
29.153621376567656
 40
0.2738386060312498
 50
180
 51
270
  0
ARC
  8
_0-7_5-4図補助2
  6
CONTINUOUS
 62
    7
 10
115.40253299739186
 20
30.092707825446013
 40
0.2738386060312498
 50
90
 51
180
  0
ARC
  8
_0-7_5-4図補助2
  6
CONTINUOUS
 62
    7
 10
116.49150613172326
 20
30.640385037508821
 40
0.2738386060312498
 50
270
 51
0
  0
ARC
  8
_0-7_5-4図補助2
  6
CONTINUOUS
 62
    7
 10
118.22947506804026
 20
30.640385037508821
 40
0.2738386060312498
 50
180
 51
270
  0
ARC
  8
_0-7_5-4図補助2
  6
CONTINUOUS
 62
    7
 10
118.79769596023806
 20
30.092707825446013
 40
0.2738386060312498
 50
0
 51
90
  0
ARC
  8
_0-7_5-4図補助2
  6
CONTINUOUS
 62
    7
 10
117.68179785597745
 20
31.876823994782143
 40
0.2738386060312498
 50
0
 51
90
  0
ARC
  8
_0-7_5-4図補助2
  6
CONTINUOUS
 62
    7
 10
117.03918334378605
 20
31.876823994782143
 40
0.2738386060312498
 50
90
 51
180
  0
LINE
  8
_0-7_5-4図補助2
  6
CONTINUOUS
 62
    7
 10
24.795699118333062
 20
22.514240513767817
 11
25.711453887116193
 21
23.429995282551289
  0
LINE
  8
_0-7_5-4図補助2
  6
CONTINUOUS
 62
    7
 10
23.436322127180517
 20
21.809029520167286
 11
26.386597190784585
 21
24.759304583771353
  0
LINE
  8
_0-7_5-4図補助2
  6
CONTINUOUS
 62
    7
 10
22.585942416838122
 20
21.612815807376563
 11
26.539760418922413
 21
25.566633809461024
  0
LINE
  8
_0-7_5-4図補助2
  6
CONTINUOUS
 62
    7
 10
21.874634804105369
 20
21.555674192195823
 11
24.552928589979558
 21
24.233967978070012
  0
LINE
  8
_0-7_5-4図補助2
  6
CONTINUOUS
 62
    7
 10
24.710416749961894
 20
24.391456138052348
 11
26.467782949835566
 21
26.148822337926021
  0
LINE
  8
_0-7_5-4図補助2
  6
CONTINUOUS
 62
    7
 10
21.265229411954067
 20
21.600434797596193
 11
23.71843289556449
 21
24.053638281206958
  0
LINE
  8
_0-7_5-4図補助2
  6
CONTINUOUS
 62
    7
 10
24.860406531359729
 20
25.195611917002196
 11
26.21979329863467
 21
26.554998684277137
  0
LINE
  8
_0-7_5-4図補助2
  6
CONTINUOUS
 62
    7
 10
20.708841159078418
 20
21.698212542272898
 11
23.063568287018313
 21
24.052939670212794
  0
LINE
  8
_0-7_5-4図補助2
  6
CONTINUOUS
 62
    7
 10
24.608139337110913
 20
25.597510720305394
 11
25.902792140928852
 21
26.892163524123163
  0
LINE
  8
_0-7_5-4図補助2
  6
CONTINUOUS
 62
    7
 10
20.19027270858993
 20
21.833810089336083
 11
22.408703678472818
 21
24.052241059218971
  0
LINE
  8
_0-7_5-4図補助2
  6
CONTINUOUS
 62
    7
 10
24.172435318468331
 20
25.815972699214825
 11
25.537676727533096
 21
27.18121410827959
  0
LINE
  8
_0-7_5-4図補助2
  6
CONTINUOUS
 62
    7
 10
19.732786046720264
 20
22.03048942501843
 11
21.753839069926642
 21
24.051542448224808
  0
LINE
  8
_0-7_5-4図補助2
  6
CONTINUOUS
 62
    7
 10
23.527096435982855
 20
25.824799814280681
 11
25.124080244141453
 21
27.421783622439278
  0
LINE
  8
_0-7_5-4図補助2
  6
CONTINUOUS
 62
    7
 10
19.302742939605594
 20
22.254612315455773
 11
21.098974461380806
 21
24.050843837230644
  0
LINE
  8
_0-7_5-4図補助2
  6
CONTINUOUS
 62
    7
 10
22.873963690225708
 20
25.825833066075887
 11
24.671086496694159
 21
27.622955872543997
  0
LINE
  8
_0-7_5-4図補助2
  6
CONTINUOUS
 62
    7
 10
18.905186632297443
 20
22.511222005699466
 11
20.444109852834629
 21
24.050145226236651
  0
LINE
  8
_0-7_5-4図補助2
  6
CONTINUOUS
 62
    7
 10
22.220830944468901
 20
25.826866317870412
 11
24.190064734210011
 21
27.796100107611863
  0
LINE
  8
_0-7_5-4図補助2
  6
CONTINUOUS
 62
    7
 10
18.551164350325905
 20
22.81136572127977
 11
19.789245244288793
 21
24.049446615242488
  0
LINE
  8
_0-7_5-4図補助2
  6
CONTINUOUS
 62
    7
 10
21.567698198711412
 20
25.827899569665618
 11
23.67732661804979
 21
27.937527989003485
  0
LINE
  8
_0-7_5-4図補助2
  6
CONTINUOUS
 62
    7
 10
18.213758887944607
 20
23.128126256450145
 11
19.223119991557098
 21
24.137487360062806
  0
LINE
  8
_0-7_5-4図補助2
  6
CONTINUOUS
 62
    7
 10
20.914565452954946
 20
25.828932821460484
 11
23.120651042648603
 21
28.035018411154311
  0
LINE
  8
_0-7_5-4図補助2
  6
CONTINUOUS
 62
    7
 10
17.931364771978394
 20
23.499898138035945
 11
18.874144435958385
 21
24.442677802015595
  0
LINE
  8
_0-7_5-4図補助2
  6
CONTINUOUS
 62
    7
 10
20.261432707198139
 20
25.82996607325569
 11
22.533536896498788
 21
28.10207026255668
  0
LINE
  8
_0-7_5-4図補助2
  6
CONTINUOUS
 62
    7
 10
17.672764507116369
 20
23.895463870725763
 11
18.723466676944042
 21
24.946166040553265
  0
LINE
  8
_0-7_5-4図補助2
  6
CONTINUOUS
 62
    7
 10
19.609019270866327
 20
25.831718634475891
 11
21.914275306525212
 21
28.136974670134947
  0
LINE
  8
_0-7_5-4図補助2
  6
CONTINUOUS
 62
    7
 10
17.45303414054473
 20
24.329899501706308
 11
21.232000038944022
 21
28.108865400105259
  0
LINE
  8
_0-7_5-4図補助2
  6
CONTINUOUS
 62
    7
 10
17.291053661925332
 20
24.822085020638582
 11
20.491164433213441
 21
28.022195791926521
  0
LINE
  8
_0-7_5-4図補助2
  6
CONTINUOUS
 62
    7
 10
17.175648116619129
 20
25.360845472884051
 11
19.654523552543139
 21
27.839720908808403
  0
LINE
  8
_0-7_5-4図補助2
  6
CONTINUOUS
 62
    7
 10
17.147790137122399
 20
25.987153490939164
 11
18.58377854649251
 21
27.423141900309446
  0
LINE
  8
_0-7_5-4図補助2
  6
CONTINUOUS
 62
    7
 10
25.482732971970051
 20
19.930444379645081
 11
28.417639021582715
 21
22.865350429258086
  0
LINE
  8
_0-7_5-4図補助2
  6
CONTINUOUS
 62
    7
 10
24.302727481638328
 20
19.404604886865371
 11
28.943478514362766
 21
24.045355919589809
  0
LINE
  8
_0-7_5-4図補助2
  6
CONTINUOUS
 62
    7
 10
23.397589369094646
 20
19.153632771873362
 11
25.374753277865636
 21
21.130796680644522
  0
LINE
  8
_0-7_5-4図補助2
  6
CONTINUOUS
 62
    7
 10
27.13213465805967
 20
22.888178060838726
 11
29.194450629354776
 21
24.950494032133832
  0
LINE
  8
_0-7_5-4図補助2
  6
CONTINUOUS
 62
    7
 10
22.621745472877762
 20
19.031954873208491
 11
24.076649840298785
 21
20.486859240629855
  0
LINE
  8
_0-7_5-4図補助2
  6
CONTINUOUS
 62
    7
 10
27.750105389086855
 20
24.160314789417754
 11
29.316128528019647
 21
25.726337928350546
  0
LINE
  8
_0-7_5-4図補助2
  6
CONTINUOUS
 62
    7
 10
21.928026387117541
 20
18.992401785000283
 11
23.16183499543223
 21
20.226210393314972
  0
LINE
  8
_0-7_5-4図補助2
  6
CONTINUOUS
 62
    7
 10
27.960389120297521
 20
25.024764518180262
 11
29.355681616227855
 21
26.420057014110597
  0
LINE
  8
_0-7_5-4図補助2
  6
CONTINUOUS
 62
    7
 10
21.29390375778047
 20
19.012445153215566
 11
22.400597947460767
 21
20.119139342895522
  0
LINE
  8
_0-7_5-4図補助2
  6
CONTINUOUS
 62
    7
 10
28.029832758029841
 20
25.748374153464596
 11
29.335638248012913
 21
27.054179643447497
  0
LINE
  8
_0-7_5-4図補助2
  6
CONTINUOUS
 62
    7
 10
20.706535743468919
 20
19.079243136455688
 11
21.721984761627311
 21
20.094692154613909
  0
LINE
  8
_0-7_5-4図補助2
  6
CONTINUOUS
 62
    7
 10
27.98413688079296
 20
26.356844273779558
 11
29.26884026477245
 21
27.641547657759048
  0
LINE
  8
_0-7_5-4図補助2
  6
CONTINUOUS
 62
    7
 10
20.157807055320689
 20
19.184680445858788
 11
21.110528151476672
 21
20.137401542015112
  0
LINE
  8
_0-7_5-4図補助2
  6
CONTINUOUS
 62
    7
 10
27.830550597422814
 20
26.857423987961084
 11
29.163402955369349
 21
28.19027634590779
  0
LINE
  8
_0-7_5-4図補助2
  6
CONTINUOUS
 62
    7
 10
19.642237800466148
 20
19.323277188556602
 11
20.540979073718006
 21
20.222018461808119
  0
LINE
  8
_0-7_5-4図補助2
  6
CONTINUOUS
 62
    7
 10
27.611091429097712
 20
27.292130817188166
 11
29.024806212671535
 21
28.70584560076199
  0
LINE
  8
_0-7_5-4図補助2
  6
CONTINUOUS
 62
    7
 10
19.155960778799852
 20
19.491166164442319
 11
20.01709403484773
 21
20.352299420490198
  0
LINE
  8
_0-7_5-4図補助2
  6
CONTINUOUS
 62
    7
 10
27.341400326089058
 20
27.676605711731185
 11
28.856917236785819
 21
29.192122622428286
  0
LINE
  8
_0-7_5-4図補助2
  6
CONTINUOUS
 62
    7
 10
18.696167870759894
 20
19.685539253954033
 11
19.532536988662343
 21
20.521908371856483
  0
LINE
  8
_0-7_5-4図補助2
  6
CONTINUOUS
 62
    7
 10
27.025852774459452
 20
28.015224157653762
 11
28.662544147274104
 21
29.651915530468415
  0
LINE
  8
_0-7_5-4図補助2
  6
CONTINUOUS
 62
    7
 10
18.260787724352156
 20
19.904325105098309
 11
19.071409037712499
 21
20.714946418458652
  0
LINE
  8
_0-7_5-4図補助2
  6
CONTINUOUS
 62
    7
 10
26.670088632963541
 20
28.313626013709694
 11
28.443758296129829
 21
30.087295676875812
  0
LINE
  8
_0-7_5-4図補助2
  6
CONTINUOUS
 62
    7
 10
17.848288019404833
 20
20.145991397702659
 11
18.641703379831313
 21
20.939406758129309
  0
LINE
  8
_0-7_5-4図補助2
  6
CONTINUOUS
 62
    7
 10
26.28365837011728
 20
28.581361748415105
 11
28.202092003525479
 21
30.499795381823645
  0
LINE
  8
_0-7_5-4図補助2
  6
CONTINUOUS
 62
    7
 10
17.457549840193053
 20
20.409419216042892
 11
18.235600322379412
 21
21.187469698229251
  0
LINE
  8
_0-7_5-4図補助2
  6
CONTINUOUS
 62
    7
 10
25.864154399361666
 20
28.816023775211505
 11
27.938664185184905
 21
30.890533561035085
  0
LINE
  8
_0-7_5-4図補助2
  6
CONTINUOUS
 62
    7
 10
17.087786545766846
 20
20.693821919168698
 11
17.859473172019932
 21
21.465508545421784
  0
LINE
  8
_0-7_5-4図補助2
  6
CONTINUOUS
 62
    7
 10
25.417144811808555
 20
29.023180185210066
 11
27.654261482059439
 21
31.260296855461291
  0
LINE
  8
_0-7_5-4図補助2
  6
CONTINUOUS
 62
    7
 10
16.73849190735433
 20
20.998693278308195
 11
17.510557525192837
 21
21.770758896146702
  0
LINE
  8
_0-7_5-4図補助2
  6
CONTINUOUS
 62
    7
 10
24.938904163127916
 20
29.19910553408144
 11
27.349390122919942
 21
31.609591493873808
  0
LINE
  8
_0-7_5-4図補助2
  6
CONTINUOUS
 62
    7
 10
16.409408935160002
 20
21.323776303665539
 11
17.177940915154011
 21
22.092308283659889
  0
LINE
  8
_0-7_5-4図補助2
  6
CONTINUOUS
 62
    7
 10
24.438616108434587
 20
29.352983476940125
 11
27.024307097562598
 21
31.938674466068306
  0
LINE
  8
_0-7_5-4図補助2
  6
CONTINUOUS
 62
    7
 10
16.100514701847203
 20
21.669048067905095
 11
16.876783286326543
 21
22.445316652384264
  0
LINE
  8
_0-7_5-4図補助2
  6
CONTINUOUS
 62
    7
 10
23.908064291890867
 20
29.476597657948417
 11
26.679035333323043
 21
32.247568699380764
  0
LINE
  8
_0-7_5-4図補助2
  6
CONTINUOUS
 62
    7
 10
15.812019009607809
 20
22.034718373217203
 11
16.607797853514683
 21
22.830497217124076
  0
LINE
  8
_0-7_5-4図補助2
  6
CONTINUOUS
 62
    7
 10
23.354526419014917
 20
29.577225782624652
 11
26.313365028010764
 21
32.536064391620329
  0
LINE
  8
_0-7_5-4図補助2
  6
CONTINUOUS
 62
    7
 10
15.54437671591694
 20
22.421242077078517
 11
16.35787864188768
 21
23.234744003048917
  0
LINE
  8
_0-7_5-4図補助2
  6
CONTINUOUS
 62
    7
 10
22.768818910867765
 20
29.645684272029001
 11
25.926841324149621
 21
32.803706685311028
  0
LINE
  8
_0-7_5-4図補助2
  6
CONTINUOUS
 62
    7
 10
15.298315453691032
 20
22.829346812404623
 11
16.140912128705907
 21
23.671943487419497
  0
LINE
  8
_0-7_5-4図補助2
  6
CONTINUOUS
 62
    7
 10
23.538769941427915
 20
31.069801300141165
 11
25.518736588823856
 21
33.049767947536935
  0
LINE
  8
_0-7_5-4図補助2
  6
CONTINUOUS
 62
    7
 10
15.074882858231774
 20
23.260080214496696
 11
15.956549306362547
 21
24.14174666262781
  0
LINE
  8
_0-7_5-4図補助2
  6
CONTINUOUS
 62
    7
 10
23.518222252655221
 20
31.703419608920143
 11
25.088003186731441
 21
33.273200542996705
  0
LINE
  8
_0-7_5-4図補助2
  6
CONTINUOUS
 62
    7
 10
14.875520947094344
 20
23.714884300911621
 11
15.808966402006661
 21
24.648329755823767
  0
LINE
  8
_0-7_5-4図補助2
  6
CONTINUOUS
 62
    7
 10
20.796025317362762
 20
29.635388671180039
 11
21.004205637901293
 21
29.843568991718399
  0
LINE
  8
_0-7_5-4図補助2
  6
CONTINUOUS
 62
    7
 10
23.336495748077766
 20
32.175859101895043
 11
24.633199100316858
 21
33.472562454133623
  0
LINE
  8
_0-7_5-4図補助2
  6
CONTINUOUS
 62
    7
 10
14.702181235794285
 20
24.195710587163575
 11
15.711791679024998
 21
25.205321030394288
  0
LINE
  8
_0-7_5-4図補助2
  6
CONTINUOUS
 62
    7
 10
20.029463184758981
 20
29.52299253612793
 11
20.633386412105949
 21
30.126915763475239
  0
LINE
  8
_0-7_5-4図補助2
  6
CONTINUOUS
 62
    7
 10
23.053148976321097
 20
32.546678327690387
 11
24.152372814064563
 21
33.645902165433853
  0
LINE
  8
_0-7_5-4図補助2
  6
CONTINUOUS
 62
    7
 10
14.55750505139855
 20
24.705200400319342
 11
15.664643097965666
 21
25.812338446886628
  0
LINE
  8
_0-7_5-4図補助2
  6
CONTINUOUS
 62
    7
 10
19.186900218155358
 20
29.33459556707632
 11
20.352670807293123
 21
30.500366156213744
  0
LINE
  8
_0-7_5-4図補助2
  6
CONTINUOUS
 62
    7
 10
22.679698583582592
 20
32.827393932503554
 11
23.642883000908967
 21
33.790578349829588
  0
LINE
  8
_0-7_5-4図補助2
  6
CONTINUOUS
 62
    7
 10
14.445115018825561
 20
25.246976365298195
 11
15.763732854758643
 21
26.565594201231619
  0
LINE
  8
_0-7_5-4図補助2
  6
CONTINUOUS
 62
    7
 10
18.178422680350479
 20
28.980284026823455
 11
20.174335791223427
 21
30.976197137696062
  0
LINE
  8
_0-7_5-4図補助2
  6
CONTINUOUS
 62
    7
 10
22.203867602100615
 20
33.00572894857325
 11
23.101107035929942
 21
33.902968382402918
  0
LINE
  8
_0-7_5-4図補助2
  6
CONTINUOUS
 62
    7
 10
14.370109824987992
 20
25.82613716901264
 11
20.160756591681036
 21
31.616783935705683
  0
LINE
  8
_0-7_5-4図補助2
  6
CONTINUOUS
 62
    7
 10
21.563280804090653
 20
33.019308148115641
 11
22.521946232215839
 21
33.977973576240487
  0
LINE
  8
_0-7_5-4図補助2
  6
CONTINUOUS
 62
    7
 10
14.339963370849262
 20
26.450156712425922
 11
21.897926688802215
 21
34.008120030379047
  0
LINE
  8
_0-7_5-4図補助2
  6
CONTINUOUS
 62
    7
 10
14.36632134686073
 20
27.130680685989404
 11
21.217402715238734
 21
33.981762054367408
  0
LINE
  8
_0-7_5-4図補助2
  6
CONTINUOUS
 62
    7
 10
14.469117335250701
 20
27.887642671931388
 11
20.460440729296749
 21
33.878966065977437
  0
LINE
  8
_0-7_5-4図補助2
  6
CONTINUOUS
 62
    7
 10
14.688271111029223
 20
28.760962445261583
 11
19.587120955966554
 21
33.659812290198914
  0
LINE
  8
_0-7_5-4図補助2
  6
CONTINUOUS
 62
    7
 10
15.133887260352765
 20
29.860744592136967
 11
18.487338809091341
 21
33.214196140875544
  0
LINE
  8
_0-7_5-4図補助2
  6
CONTINUOUS
 62
    7
 10
42.491431091367247
 20
21.239158557796344
 11
43.957461335371306
 21
22.705188801800745
  0
LINE
  8
_0-7_5-4図補助2
  6
CONTINUOUS
 62
    7
 10
41.745888219709002
 20
21.147781683690113
 11
44.017128920889775
 21
23.419022384870715
  0
LINE
  8
_0-7_5-4図補助2
  6
CONTINUOUS
 62
    7
 10
41.09172222215733
 20
21.147781683690113
 11
44.017128920889775
 21
24.073188382422558
  0
LINE
  8
_0-7_5-4図補助2
  6
CONTINUOUS
 62
    7
 10
40.437556224605316
 20
21.147781683690113
 11
44.017128920889775
 21
24.727354379974571
  0
LINE
  8
_0-7_5-4図補助2
  6
CONTINUOUS
 62
    7
 10
39.783390227053303
 20
21.147781683690113
 11
44.017128920889775
 21
25.381520377526584
  0
LINE
  8
_0-7_5-4図補助2
  6
CONTINUOUS
 62
    7
 10
39.129224229501631
 20
21.147781683690113
 11
44.017128920889775
 21
26.035686375078427
  0
LINE
  8
_0-7_5-4図補助2
  6
CONTINUOUS
 62
    7
 10
38.475058231949617
 20
21.147781683690113
 11
41.448585180843054
 21
24.121308632583379
  0
LINE
  8
_0-7_5-4図補助2
  6
CONTINUOUS
 62
    7
 10
42.30608495450241
 20
24.978808406242905
 11
44.017128920889775
 21
26.68985237263044
  0
LINE
  8
_0-7_5-4図補助2
  6
CONTINUOUS
 62
    7
 10
37.820892234397604
 20
21.147781683690113
 11
40.794419183291041
 21
24.121308632583379
  0
LINE
  8
_0-7_5-4図補助2
  6
CONTINUOUS
 62
    7
 10
42.228306819677698
 20
25.555196268969866
 11
44.017128920889775
 21
27.344018370182283
  0
LINE
  8
_0-7_5-4図補助2
  6
CONTINUOUS
 62
    7
 10
37.166726236845932
 20
21.147781683690113
 11
40.140253185739027
 21
24.121308632583379
  0
LINE
  8
_0-7_5-4図補助2
  6
CONTINUOUS
 62
    7
 10
41.775693287372803
 20
25.756748734216984
 11
44.017128920889775
 21
27.998184367733955
  0
LINE
  8
_0-7_5-4図補助2
  6
CONTINUOUS
 62
    7
 10
36.512560239293578
 20
21.147781683690113
 11
39.486087188187355
 21
24.121308632583549
  0
LINE
  8
_0-7_5-4図補助2
  6
CONTINUOUS
 62
    7
 10
41.12152728982079
 20
25.756748734216984
 11
44.017128920889775
 21
28.652350365285969
  0
LINE
  8
_0-7_5-4図補助2
  6
CONTINUOUS
 62
    7
 10
35.858394241741905
 20
21.147781683690113
 11
38.831921190635342
 21
24.121308632583549
  0
LINE
  8
_0-7_5-4図補助2
  6
CONTINUOUS
 62
    7
 10
40.467361292268777
 20
25.756748734216984
 11
41.656772071825742
 21
26.946159513773949
  0
LINE
  8
_0-7_5-4図補助2
  6
CONTINUOUS
 62
    7
 10
42.30608495450241
 20
27.595472396450276
 11
44.017128920889775
 21
29.306516362837812
  0
LINE
  8
_0-7_5-4図補助2
  6
CONTINUOUS
 62
    7
 10
35.218489050042024
 20
21.162042489541903
 11
38.177755193083328
 21
24.121308632583549
  0
LINE
  8
_0-7_5-4図補助2
  6
CONTINUOUS
 62
    7
 10
39.813195294716763
 20
25.756748734216984
 11
41.00260607427407
 21
26.946159513773949
  0
LINE
  8
_0-7_5-4図補助2
  6
CONTINUOUS
 62
    7
 10
42.292434679354926
 20
28.235988118855147
 11
43.932770580430713
 21
29.876324019930763
  0
LINE
  8
_0-7_5-4図補助2
  6
CONTINUOUS
 62
    7
 10
34.706601489510547
 20
21.30432092656244
 11
37.523589195531656
 21
24.121308632583549
  0
LINE
  8
_0-7_5-4図補助2
  6
CONTINUOUS
 62
    7
 10
39.159029297165091
 20
25.756748734216984
 11
40.348440076722056
 21
26.946159513773949
  0
LINE
  8
_0-7_5-4図補助2
  6
CONTINUOUS
 62
    7
 10
41.968219365793118
 20
28.56593880284484
 11
43.470643466307422
 21
30.068362903359485
  0
LINE
  8
_0-7_5-4図補助2
  6
CONTINUOUS
 62
    7
 10
34.268930257855402
 20
21.520815692459308
 11
36.869423197979643
 21
24.121308632583549
  0
LINE
  8
_0-7_5-4図補助2
  6
CONTINUOUS
 62
    7
 10
38.504863299613078
 20
25.756748734216984
 11
39.694274079170384
 21
26.946159513773949
  0
LINE
  8
_0-7_5-4図補助2
  6
CONTINUOUS
 62
    7
 10
41.329714180803478
 20
28.581599615407384
 11
42.816477468755409
 21
30.068362903359485
  0
LINE
  8
_0-7_5-4図補助2
  6
CONTINUOUS
 62
    7
 10
33.832712052223258
 20
21.738763484379177
 11
36.215257200427629
 21
24.121308632583549
  0
LINE
  8
_0-7_5-4図補助2
  6
CONTINUOUS
 62
    7
 10
37.850697302061064
 20
25.756748734216984
 11
39.040108081618371
 21
26.946159513773949
  0
LINE
  8
_0-7_5-4図補助2
  6
CONTINUOUS
 62
    7
 10
40.675548183251465
 20
28.581599615407384
 11
42.162311471203736
 21
30.068362903359485
  0
LINE
  8
_0-7_5-4図補助2
  6
CONTINUOUS
 62
    7
 10
33.53041823421546
 20
22.090635663922882
 11
35.561091202875957
 21
24.121308632583549
  0
LINE
  8
_0-7_5-4図補助2
  6
CONTINUOUS
 62
    7
 10
37.196531304509051
 20
25.756748734216984
 11
38.385942084066357
 21
26.946159513773949
  0
LINE
  8
_0-7_5-4図補助2
  6
CONTINUOUS
 62
    7
 10
40.021382185699792
 20
28.581599615407384
 11
41.508145473651723
 21
30.068362903359485
  0
LINE
  8
_0-7_5-4図補助2
  6
CONTINUOUS
 62
    7
 10
33.318433408738599
 20
22.532816835998204
 11
34.988447301318672
 21
24.202830728578107
  0
LINE
  8
_0-7_5-4図補助2
  6
CONTINUOUS
 62
    7
 10
36.542365306957379
 20
25.756748734216984
 11
37.731776086514344
 21
26.946159513773949
  0
LINE
  8
_0-7_5-4図補助2
  6
CONTINUOUS
 62
    7
 10
39.367216188147779
 20
28.581599615407384
 11
40.853979476100051
 21
30.068362903359485
  0
LINE
  8
_0-7_5-4図補助2
  6
CONTINUOUS
 62
    7
 10
33.230113499996776
 20
23.098662924808053
 11
34.792370845961102
 21
24.660920270772721
  0
LINE
  8
_0-7_5-4図補助2
  6
CONTINUOUS
 62
    7
 10
35.888199309405707
 20
25.756748734216984
 11
37.077610088962672
 21
26.946159513773949
  0
LINE
  8
_0-7_5-4図補助2
  6
CONTINUOUS
 62
    7
 10
38.713050190595766
 20
28.581599615407384
 11
40.253940212399527
 21
30.122489637210975
  0
LINE
  8
_0-7_5-4図補助2
  6
CONTINUOUS
 62
    7
 10
33.230113499996776
 20
23.752828922360067
 11
34.792616788768726
 21
25.315332211132358
  0
LINE
  8
_0-7_5-4図補助2
  6
CONTINUOUS
 62
    7
 10
35.233787369045729
 20
25.75650279140919
 11
36.423444091410659
 21
26.946159513773949
  0
LINE
  8
_0-7_5-4図補助2
  6
CONTINUOUS
 62
    7
 10
38.058884193044094
 20
28.581599615407384
 11
40.229873634708554
 21
30.752589057072186
  0
LINE
  8
_0-7_5-4図補助2
  6
CONTINUOUS
 62
    7
 10
33.230113499996776
 20
24.406994919911909
 11
35.769278093858645
 21
26.946159513773949
  0
LINE
  8
_0-7_5-4図補助2
  6
CONTINUOUS
 62
    7
 10
37.40471819549208
 20
28.581599615407384
 11
40.422401820984817
 21
31.599283240900292
  0
LINE
  8
_0-7_5-4図補助2
  6
CONTINUOUS
 62
    7
 10
33.230113499996776
 20
25.061160917463752
 11
35.13065937937489
 21
26.961706796842037
  0
LINE
  8
_0-7_5-4図補助2
  6
CONTINUOUS
 62
    7
 10
36.750552197940067
 20
28.581599615407384
 11
40.239484200841332
 21
32.07053161830865
  0
LINE
  8
_0-7_5-4図補助2
  6
CONTINUOUS
 62
    7
 10
33.230113499996776
 20
25.715326915015595
 11
34.806128669595353
 21
27.291342084614513
  0
LINE
  8
_0-7_5-4図補助2
  6
CONTINUOUS
 62
    7
 10
36.096386200388395
 20
28.581599615407384
 11
39.59028031871452
 21
32.075493733733509
  0
LINE
  8
_0-7_5-4図補助2
  6
CONTINUOUS
 62
    7
 10
33.230113499996776
 20
26.369492912567438
 11
34.792370845961102
 21
27.931750258532105
  0
LINE
  8
_0-7_5-4図補助2
  6
CONTINUOUS
 62
    7
 10
35.442220202836381
 20
28.581599615407384
 11
36.928983490788312
 21
30.068362903359485
  0
LINE
  8
_0-7_5-4図補助2
  6
CONTINUOUS
 62
    7
 10
37.726196722503289
 20
30.865576135074292
 11
38.936114321162506
 21
32.075493733733509
  0
LINE
  8
_0-7_5-4図補助2
  6
CONTINUOUS
 62
    7
 10
33.230113499996776
 20
27.023658910119451
 11
36.27481749323664
 21
30.068362903359485
  0
LINE
  8
_0-7_5-4図補助2
  6
CONTINUOUS
 62
    7
 10
37.918724908779211
 20
31.712270318902227
 11
38.272316304963113
 21
32.065861715086129
  0
LINE
  8
_0-7_5-4図補助2
  6
CONTINUOUS
 62
    7
 10
33.230113499996435
 20
27.677824907671464
 11
35.620651495684626
 21
30.068362903359485
  0
LINE
  8
_0-7_5-4図補助2
  6
CONTINUOUS
 62
    7
 10
33.230113499996435
 20
28.331990905223137
 11
34.966485498132613
 21
30.068362903359485
  0
LINE
  8
_0-7_5-4図補助2
  6
CONTINUOUS
 62
    7
 10
33.230113499996435
 20
28.98615690277515
 11
34.312319500580941
 21
30.068362903359485
  0
LINE
  8
_0-7_5-4図補助2
  6
CONTINUOUS
 62
    7
 10
33.231054919246446
 20
29.641264319577004
 11
33.657212083778916
 21
30.067421484109474
  0
LINE
  8
_0-7_5-4図補助2
  6
CONTINUOUS
 62
    7
 10
55.052222831785286
 20
21.370796344727836
 11
55.101716963064462
 21
21.420290476007011
  0
LINE
  8
_0-7_5-4図補助2
  6
CONTINUOUS
 62
    7
 10
54.446535217104781
 20
21.419274727599344
 11
55.101716963064462
 21
22.074456473558854
  0
LINE
  8
_0-7_5-4図補助2
  6
CONTINUOUS
 62
    7
 10
53.975143374993138
 20
21.602048883039373
 11
55.101716963064462
 21
22.728622471110697
  0
LINE
  8
_0-7_5-4図補助2
  6
CONTINUOUS
 62
    7
 10
53.599229549723475
 20
21.880301055321723
 11
55.101716963064462
 21
23.38278846866271
  0
LINE
  8
_0-7_5-4図補助2
  6
CONTINUOUS
 62
    7
 10
53.264047983954981
 20
22.199285487104902
 11
55.101716963064462
 21
24.036954466214723
  0
LINE
  8
_0-7_5-4図補助2
  6
CONTINUOUS
 62
    7
 10
52.928866418186487
 20
22.518269918888421
 11
54.795228961532018
 21
24.384632462234293
  0
LINE
  8
_0-7_5-4図補助2
  6
CONTINUOUS
 62
    7
 10
50.532521456695065
 20
20.776090954949183
 11
51.010090787297884
 21
21.253660285551831
  0
LINE
  8
_0-7_5-4図補助2
  6
CONTINUOUS
 62
    7
 10
52.593684852417653
 20
22.837254350671941
 11
54.191093689495062
 21
24.43466318774901
  0
LINE
  8
_0-7_5-4図補助2
  6
CONTINUOUS
 62
    7
 10
49.878355459143393
 20
20.776090954949183
 11
51.010090787297884
 21
21.907826283103674
  0
LINE
  8
_0-7_5-4図補助2
  6
CONTINUOUS
 62
    7
 10
52.33665474724711
 20
23.23439024305307
 11
53.756926529836107
 21
24.654662025642068
  0
LINE
  8
_0-7_5-4図補助2
  6
CONTINUOUS
 62
    7
 10
49.224189461591379
 20
20.776090954949183
 11
51.010090787297884
 21
22.561992280655858
  0
LINE
  8
_0-7_5-4図補助2
  6
CONTINUOUS
 62
    7
 10
52.084937763462278
 20
23.636839256819911
 11
53.443943724311509
 21
24.995845217669142
  0
LINE
  8
_0-7_5-4図補助2
  6
CONTINUOUS
 62
    7
 10
48.570023464039366
 20
20.776090954949183
 11
51.010090787297884
 21
23.21615827820753
  0
LINE
  8
_0-7_5-4図補助2
  6
CONTINUOUS
 62
    7
 10
51.833220779677447
 20
24.039288270587093
 11
53.13096091878657
 21
25.337028409696217
  0
LINE
  8
_0-7_5-4図補助2
  6
CONTINUOUS
 62
    7
 10
48.257541717079391
 20
21.11777520554088
 11
51.010090787297884
 21
23.870324275759543
  0
LINE
  8
_0-7_5-4図補助2
  6
CONTINUOUS
 62
    7
 10
51.585934818284329
 20
24.446168306745648
 11
52.838826490879626
 21
25.699059979341115
  0
LINE
  8
_0-7_5-4図補助2
  6
CONTINUOUS
 62
    7
 10
48.257541717079391
 20
21.771941203092723
 11
51.010090787297884
 21
24.524490273311386
  0
LINE
  8
_0-7_5-4図補助2
  6
CONTINUOUS
 62
    7
 10
51.416610228115076
 20
24.931009714128749
 11
52.558351071980667
 21
26.072750557994169
  0
LINE
  8
_0-7_5-4図補助2
  6
CONTINUOUS
 62
    7
 10
48.257541717079391
 20
22.426107200644736
 11
49.360672360455908
 21
23.529237844021594
  0
LINE
  8
_0-7_5-4図補助2
  6
CONTINUOUS
 62
    7
 10
49.593985213963549
 20
23.762550697529235
 11
51.010090787297884
 21
25.178656270863229
  0
LINE
  8
_0-7_5-4図補助2
  6
CONTINUOUS
 62
    7
 10
51.382056409008044
 20
25.55062189257373
 11
52.303623830290405
 21
26.47218931385575
  0
LINE
  8
_0-7_5-4図補助2
  6
CONTINUOUS
 62
    7
 10
48.257541717079391
 20
23.08027319819675
 11
48.703872134676601
 21
23.526603615793789
  0
LINE
  8
_0-7_5-4図補助2
  6
CONTINUOUS
 62
    7
 10
49.596619442191866
 20
24.419350923309224
 11
51.010090787297884
 21
25.832822268415242
  0
LINE
  8
_0-7_5-4図補助2
  6
CONTINUOUS
 62
    7
 10
51.382056409008044
 20
26.204787890125743
 11
52.148590317182141
 21
26.97132179829984
  0
LINE
  8
_0-7_5-4図補助2
  6
CONTINUOUS
 62
    7
 10
49.596619442191866
 20
25.073516920860897
 11
51.010090787297884
 21
26.486988265967085
  0
LINE
  8
_0-7_5-4図補助2
  6
CONTINUOUS
 62
    7
 10
51.382056409008044
 20
26.858953887677586
 11
54.299948898798164
 21
29.776846377467876
  0
LINE
  8
_0-7_5-4図補助2
  6
CONTINUOUS
 62
    7
 10
45.314851498906989
 20
21.445914975127863
 11
48.118474552603118
 21
24.249538028824503
  0
LINE
  8
_0-7_5-4図補助2
  6
CONTINUOUS
 62
    7
 10
49.596619442191866
 20
25.72768291841291
 11
51.010090787297884
 21
27.141154263518928
  0
LINE
  8
_0-7_5-4図補助2
  6
CONTINUOUS
 62
    7
 10
51.382056409008044
 20
27.513119885229429
 11
53.942330014072979
 21
30.073393490294364
  0
LINE
  8
_0-7_5-4図補助2
  6
CONTINUOUS
 62
    7
 10
44.686667783446353
 20
21.47189725721941
 11
48.620536879283634
 21
25.405766353056691
  0
LINE
  8
_0-7_5-4図補助2
  6
CONTINUOUS
 62
    7
 10
49.596619442191866
 20
26.381848915964923
 11
51.010090787297884
 21
27.795320261070941
  0
LINE
  8
_0-7_5-4図補助2
  6
CONTINUOUS
 62
    7
 10
51.382056409008044
 20
28.167285882781442
 11
53.578784966245109
 21
30.364014440017826
  0
LINE
  8
_0-7_5-4図補助2
  6
CONTINUOUS
 62
    7
 10
44.686667783446353
 20
22.126063254771253
 11
48.801299744477717
 21
26.240695215802617
  0
LINE
  8
_0-7_5-4図補助2
  6
CONTINUOUS
 62
    7
 10
49.596619442191866
 20
27.036014913516766
 11
51.010090787297884
 21
28.449486258622954
  0
LINE
  8
_0-7_5-4図補助2
  6
CONTINUOUS
 62
    7
 10
44.686667783446353
 20
22.780229252323096
 11
48.920343280538816
 21
27.013904749415389
  0
LINE
  8
_0-7_5-4図補助2
  6
CONTINUOUS
 62
    7
 10
49.596619442191866
 20
27.690180911068609
 11
51.010090787297884
 21
29.103652256174797
  0
LINE
  8
_0-7_5-4図補助2
  6
CONTINUOUS
 62
    7
 10
44.686667783446353
 20
23.434395249875109
 11
46.148116453602768
 21
24.895843920031524
  0
LINE
  8
_0-7_5-4図補助2
  6
CONTINUOUS
 62
    7
 10
47.727410199475514
 20
26.475137665904612
 11
49.001474199629172
 21
27.749201666058099
  0
LINE
  8
_0-7_5-4図補助2
  6
CONTINUOUS
 62
    7
 10
49.596619442191866
 20
28.344346908620622
 11
51.010090787297884
 21
29.75781825372664
  0
LINE
  8
_0-7_5-4図補助2
  6
CONTINUOUS
 62
    7
 10
44.686667783446353
 20
24.088561247426782
 11
45.395894106127741
 21
24.79778757010817
  0
LINE
  8
_0-7_5-4図補助2
  6
CONTINUOUS
 62
    7
 10
47.958796627287882
 20
27.360690091268992
 11
49.001474199629172
 21
28.403367663609941
  0
LINE
  8
_0-7_5-4図補助2
  6
CONTINUOUS
 62
    7
 10
49.596619442191866
 20
28.998512906172294
 11
51.010090787297884
 21
30.411984251278653
  0
LINE
  8
_0-7_5-4図補助2
  6
CONTINUOUS
 62
    7
 10
47.856496543749984
 20
27.912556005282596
 11
49.001474199629172
 21
29.057533661161955
  0
LINE
  8
_0-7_5-4図補助2
  6
CONTINUOUS
 62
    7
 10
49.596619442191866
 20
29.652678903724308
 11
51.010090787297884
 21
31.066150248830496
  0
LINE
  8
_0-7_5-4図補助2
  6
CONTINUOUS
 62
    7
 10
47.20233054619797
 20
27.912556005282596
 11
48.763432054496377
 21
29.473657513580832
  0
LINE
  8
_0-7_5-4図補助2
  6
CONTINUOUS
 62
    7
 10
49.596619442191866
 20
30.306844901276321
 11
50.956627092720225
 21
31.666852551804851
  0
LINE
  8
_0-7_5-4図補助2
  6
CONTINUOUS
 62
    7
 10
46.548164548646298
 20
27.912556005282596
 11
48.109266056944364
 21
29.473657513580832
  0
LINE
  8
_0-7_5-4図補助2
  6
CONTINUOUS
 62
    7
 10
49.596619442191866
 20
30.961010898828334
 11
50.413749768702417
 21
31.778141225338544
  0
LINE
  8
_0-7_5-4図補助2
  6
CONTINUOUS
 62
    7
 10
45.893998551094285
 20
27.912556005282596
 11
47.45510005939235
 21
29.473657513580832
  0
LINE
  8
_0-7_5-4図補助2
  6
CONTINUOUS
 62
    7
 10
49.65590272223875
 20
31.674460176426891
 11
49.700300491103178
 21
31.71885794529183
  0
LINE
  8
_0-7_5-4図補助2
  6
CONTINUOUS
 62
    7
 10
45.239832553542271
 20
27.912556005282596
 11
46.800934061840678
 21
29.473657513580832
  0
LINE
  8
_0-7_5-4図補助2
  6
CONTINUOUS
 62
    7
 10
44.723074025932362
 20
28.04996347522453
 11
46.146768064288665
 21
29.473657513580832
  0
LINE
  8
_0-7_5-4図補助2
  6
CONTINUOUS
 62
    7
 10
44.686667783446353
 20
28.667723230290193
 11
45.492602066736652
 21
29.473657513580832
  0
LINE
  8
_0-7_5-4図補助2
  6
CONTINUOUS
 62
    7
 10
66.02284580795407
 20
21.22059736251444
 11
66.357859391768841
 21
21.555610946328869
  0
LINE
  8
_0-7_5-4図補助2
  6
CONTINUOUS
 62
    7
 10
65.368679810402398
 20
21.22059736251444
 11
66.357859391768841
 21
22.209776943880883
  0
LINE
  8
_0-7_5-4図補助2
  6
CONTINUOUS
 62
    7
 10
64.714513812850726
 20
21.22059736251444
 11
66.357859391768841
 21
22.863942941432725
  0
LINE
  8
_0-7_5-4図補助2
  6
CONTINUOUS
 62
    7
 10
64.060347815298371
 20
21.22059736251444
 11
66.262267594763841
 21
23.422517141979569
  0
LINE
  8
_0-7_5-4図補助2
  6
CONTINUOUS
 62
    7
 10
63.461430207425053
 20
21.275845752192282
 11
65.785003376861312
 21
23.599418921629052
  0
LINE
  8
_0-7_5-4図補助2
  6
CONTINUOUS
 62
    7
 10
66.6027234276782
 20
24.417138972445599
 11
67.027398254325419
 21
24.841813799092989
  0
LINE
  8
_0-7_5-4図補助2
  6
CONTINUOUS
 62
    7
 10
63.07636915164511
 20
21.544950693964523
 11
65.130837379309639
 21
23.599418921629052
  0
LINE
  8
_0-7_5-4図補助2
  6
CONTINUOUS
 62
    7
 10
65.948557430126186
 20
24.417138972445599
 11
66.911329472474279
 21
25.379911014793862
  0
LINE
  8
_0-7_5-4図補助2
  6
CONTINUOUS
 62
    7
 10
62.871973442100114
 20
21.99472098197154
 11
64.532183445559156
 21
23.654930985430582
  0
LINE
  8
_0-7_5-4図補助2
  6
CONTINUOUS
 62
    7
 10
65.294391432574173
 20
24.417138972445599
 11
66.409463991785685
 21
25.53221153165677
  0
LINE
  8
_0-7_5-4図補助2
  6
CONTINUOUS
 62
    7
 10
62.861378458564957
 20
22.638291995988396
 11
64.431486384455241
 21
24.208399921878339
  0
LINE
  8
_0-7_5-4図補助2
  6
CONTINUOUS
 62
    7
 10
64.632374855096202
 20
24.409288392519642
 11
66.134679770916989
 21
25.911593308340429
  0
LINE
  8
_0-7_5-4図補助2
  6
CONTINUOUS
 62
    7
 10
62.861378458564957
 20
23.292457993540239
 11
66.134679770916989
 21
26.565759305892101
  0
LINE
  8
_0-7_5-4図補助2
  6
CONTINUOUS
 62
    7
 10
62.861378458564957
 20
23.946623991092082
 11
64.446965999129986
 21
25.532211531657111
  0
LINE
  8
_0-7_5-4図補助2
  6
CONTINUOUS
 62
    7
 10
64.932794015345223
 20
26.018039547872348
 11
66.134679770916989
 21
27.219925303444114
  0
LINE
  8
_0-7_5-4図補助2
  6
CONTINUOUS
 62
    7
 10
62.666189759491488
 20
24.405601289570626
 11
63.902883562396426
 21
25.642295092475564
  0
LINE
  8
_0-7_5-4図補助2
  6
CONTINUOUS
 62
    7
 10
64.313167171010662
 20
26.0525787010898
 11
66.134679770916989
 21
27.874091300996128
  0
LINE
  8
_0-7_5-4図補助2
  6
CONTINUOUS
 62
    7
 10
58.827019834883288
 20
21.22059736251444
 11
59.960043387488156
 21
22.353620915118967
  0
LINE
  8
_0-7_5-4図補助2
  6
CONTINUOUS
 62
    7
 10
62.023561444814789
 20
24.417138972445599
 11
66.134679770916989
 21
28.5282572985478
  0
LINE
  8
_0-7_5-4図補助2
  6
CONTINUOUS
 62
    7
 10
58.172853837331274
 20
21.22059736251444
 11
59.960043387488156
 21
23.00778691267098
  0
LINE
  8
_0-7_5-4図補助2
  6
CONTINUOUS
 62
    7
 10
61.369395447262775
 20
24.417138972445599
 11
62.484496759604383
 21
25.532240284787036
  0
LINE
  8
_0-7_5-4図補助2
  6
CONTINUOUS
 62
    7
 10
62.935742705864016
 20
25.98348623104684
 11
64.268584175810417
 21
27.316327700993241
  0
LINE
  8
_0-7_5-4図補助2
  6
CONTINUOUS
 62
    7
 10
64.96006905488747
 20
28.007812580070294
 11
66.134679770916989
 21
29.182423296099813
  0
LINE
  8
_0-7_5-4図補助2
  6
CONTINUOUS
 62
    7
 10
57.518687839779602
 20
21.22059736251444
 11
59.960043387488156
 21
23.661952910222652
  0
LINE
  8
_0-7_5-4図補助2
  6
CONTINUOUS
 62
    7
 10
60.715229449710762
 20
24.417138972445599
 11
61.830302008922274
 21
25.532211531657111
  0
LINE
  8
_0-7_5-4図補助2
  6
CONTINUOUS
 62
    7
 10
62.935771458994111
 20
26.637680981728778
 11
63.902883562396426
 21
27.604793085131092
  0
LINE
  8
_0-7_5-4図補助2
  6
CONTINUOUS
 62
    7
 10
64.357800008728816
 20
28.059709531463653
 11
66.134679770916989
 21
29.836589293651656
  0
LINE
  8
_0-7_5-4図補助2
  6
CONTINUOUS
 62
    7
 10
56.86452184222793
 20
21.22059736251444
 11
59.960043387488156
 21
24.316118907774666
  0
LINE
  8
_0-7_5-4図補助2
  6
CONTINUOUS
 62
    7
 10
60.06106345215909
 20
24.417138972445599
 11
61.176136011370261
 21
25.532211531657111
  0
LINE
  8
_0-7_5-4図補助2
  6
CONTINUOUS
 62
    7
 10
62.935771458994111
 20
27.291846979280791
 11
66.134679770916989
 21
30.49075529120384
  0
LINE
  8
_0-7_5-4図補助2
  6
CONTINUOUS
 62
    7
 10
56.240382833431738
 20
21.250624351270261
 11
60.521970013818589
 21
25.532211531657111
  0
LINE
  8
_0-7_5-4図補助2
  6
CONTINUOUS
 62
    7
 10
62.935771458994111
 20
27.946012976832634
 11
64.313217013528231
 21
29.323458531366924
  0
LINE
  8
_0-7_5-4図補助2
  6
CONTINUOUS
 62
    7
 10
64.984661151973057
 20
29.99490266981158
 11
65.894298778875452
 21
30.904540296714146
  0
LINE
  8
_0-7_5-4図補助2
  6
CONTINUOUS
 62
    7
 10
56.240382833431738
 20
21.904790348822274
 11
57.860673185892381
 21
23.525080701282917
  0
LINE
  8
_0-7_5-4図補助2
  6
CONTINUOUS
 62
    7
 10
58.397786041523489
 20
24.062193556914025
 11
60.010526371844833
 21
25.67493388723571
  0
LINE
  8
_0-7_5-4図補助2
  6
CONTINUOUS
 62
    7
 10
62.935771458994111
 20
28.600178974384647
 11
63.904372476712467
 21
29.568779992103003
  0
LINE
  8
_0-7_5-4図補助2
  6
CONTINUOUS
 62
    7
 10
64.40243284644697
 20
30.066840361837848
 11
65.294491117609994
 21
30.958898633000189
  0
LINE
  8
_0-7_5-4図補助2
  6
CONTINUOUS
 62
    7
 10
56.240382833431738
 20
22.558956346373947
 11
57.206507188340368
 21
23.525080701282917
  0
LINE
  8
_0-7_5-4図補助2
  6
CONTINUOUS
 62
    7
 10
58.09856545950305
 20
24.417138972445599
 11
59.885650387059002
 21
26.20422390000121
  0
LINE
  8
_0-7_5-4図補助2
  6
CONTINUOUS
 62
    7
 10
62.935771458994111
 20
29.25434497193632
 11
64.64032512005798
 21
30.958898633000189
  0
LINE
  8
_0-7_5-4図補助2
  6
CONTINUOUS
 62
    7
 10
56.278471615162914
 20
23.251211125657136
 11
56.514252409057178
 21
23.486991919551741
  0
LINE
  8
_0-7_5-4図補助2
  6
CONTINUOUS
 62
    7
 10
57.444399461951377
 20
24.417138972445599
 11
58.55947202116289
 21
25.532211531657111
  0
LINE
  8
_0-7_5-4図補助2
  6
CONTINUOUS
 62
    7
 10
58.857077879438236
 20
25.829817389932288
 11
59.885650387059002
 21
26.858389897553224
  0
LINE
  8
_0-7_5-4図補助2
  6
CONTINUOUS
 62
    7
 10
62.935771458994111
 20
29.908510969488503
 11
64.177658222184789
 21
31.150397732679352
  0
LINE
  8
_0-7_5-4図補助2
  6
CONTINUOUS
 62
    7
 10
56.790233464399364
 20
24.417138972445599
 11
57.905306023610876
 21
25.532211531657111
  0
LINE
  8
_0-7_5-4図補助2
  6
CONTINUOUS
 62
    7
 10
58.425673193043565
 20
26.0525787010898
 11
59.885650387059002
 21
27.512555895105237
  0
LINE
  8
_0-7_5-4図補助2
  6
CONTINUOUS
 62
    7
 10
62.776229521293942
 20
30.403135029340177
 11
63.923761689240735
 21
31.550667197286629
  0
LINE
  8
_0-7_5-4図補助2
  6
CONTINUOUS
 62
    7
 10
56.136067466847351
 20
24.417138972445599
 11
59.885650387058661
 21
28.166721892656909
  0
LINE
  8
_0-7_5-4図補助2
  6
CONTINUOUS
 62
    7
 10
62.231797805326494
 20
30.512869310924401
 11
63.346870737526558
 21
31.627942243124807
  0
LINE
  8
_0-7_5-4図補助2
  6
CONTINUOUS
 62
    7
 10
55.868417211721237
 20
24.803654714871158
 11
56.59697402850685
 21
25.532211531657111
  0
LINE
  8
_0-7_5-4図補助2
  6
CONTINUOUS
 62
    7
 10
56.686742075135783
 20
25.621979578285703
 11
58.381090197843321
 21
27.316327700993241
  0
LINE
  8
_0-7_5-4図補助2
  6
CONTINUOUS
 62
    7
 10
58.861661451989164
 20
27.796898955139085
 11
59.885650387058661
 21
28.820887890208922
  0
LINE
  8
_0-7_5-4図補助2
  6
CONTINUOUS
 62
    7
 10
61.57763180777448
 20
30.512869310924401
 11
62.692704739974886
 21
31.627942243124807
  0
LINE
  8
_0-7_5-4図補助2
  6
CONTINUOUS
 62
    7
 10
56.686742075135783
 20
26.276145575837546
 11
57.774072637596362
 21
27.363476138298296
  0
LINE
  8
_0-7_5-4図補助2
  6
CONTINUOUS
 62
    7
 10
58.470306030761719
 20
28.059709531463653
 11
59.885650387058661
 21
29.475053887760765
  0
LINE
  8
_0-7_5-4図補助2
  6
CONTINUOUS
 62
    7
 10
60.923465810222467
 20
30.512869310924401
 11
62.038538742423214
 21
31.627942243124807
  0
LINE
  8
_0-7_5-4図補助2
  6
CONTINUOUS
 62
    7
 10
56.686742075135783
 20
26.930311573389559
 11
57.715966433560368
 21
27.959535931814315
  0
LINE
  8
_0-7_5-4図補助2
  6
CONTINUOUS
 62
    7
 10
57.754027778187435
 20
27.997597276441383
 11
59.892676381190711
 21
30.136245879444658
  0
LINE
  8
_0-7_5-4図補助2
  6
CONTINUOUS
 62
    7
 10
60.262273818538404
 20
30.505843316792351
 11
61.384372744870859
 21
31.627942243124807
  0
LINE
  8
_0-7_5-4図補助2
  6
CONTINUOUS
 62
    7
 10
56.686742075135783
 20
27.584477570941402
 11
58.425723035561475
 21
29.323458531366924
  0
LINE
  8
_0-7_5-4図補助2
  6
CONTINUOUS
 62
    7
 10
58.861883602532032
 20
29.759619098337993
 11
60.730206747319187
 21
31.627942243124807
  0
LINE
  8
_0-7_5-4図補助2
  6
CONTINUOUS
 62
    7
 10
56.686742075135783
 20
28.238643568493416
 11
57.802071180246401
 21
29.353972673604375
  0
LINE
  8
_0-7_5-4図補助2
  6
CONTINUOUS
 62
    7
 10
58.514938868479874
 20
30.066840361837848
 11
60.076040749766833
 21
31.627942243124807
  0
LINE
  8
_0-7_5-4図補助2
  6
CONTINUOUS
 62
    7
 10
56.686742075135783
 20
28.892809566045429
 11
57.665309726473367
 21
29.871377217382843
  0
LINE
  8
_0-7_5-4図補助2
  6
CONTINUOUS
 62
    7
 10
57.849317322993272
 20
30.055384813902577
 11
59.42187475221516
 21
31.627942243124807
  0
LINE
  8
_0-7_5-4図補助2
  6
CONTINUOUS
 62
    7
 10
56.686742075135783
 20
29.546975563597272
 11
58.108099513030254
 21
30.968333001491573
  0
LINE
  8
_0-7_5-4図補助2
  6
CONTINUOUS
 62
    7
 10
58.466071586932969
 20
31.326305075394288
 11
58.74066876585988
 21
31.600902254321539
  0
LINE
  8
_0-7_5-4図補助2
  6
CONTINUOUS
 62
    7
 10
56.686742075135783
 20
30.201141561149115
 11
57.444499146986857
 21
30.958898633000189
  0
LINE
  8
_0-7_5-4図補助2
  6
CONTINUOUS
 62
    7
 10
61.622164960456814
 20
25.978240480744006
 11
62.415019216860571
 21
26.771094737147422
  0
LINE
  8
_0-7_5-4図補助2
  6
CONTINUOUS
 62
    7
 10
60.967998962905142
 20
25.978240480744006
 11
62.415019216860571
 21
27.425260734699435
  0
LINE
  8
_0-7_5-4図補助2
  6
CONTINUOUS
 62
    7
 10
60.496440287220537
 20
26.160847802611414
 11
61.189661590504613
 21
26.85406910589515
  0
LINE
  8
_0-7_5-4図補助2
  6
CONTINUOUS
 62
    7
 10
61.812575114827439
 20
27.476982630217975
 11
62.415019216860571
 21
28.079426732251449
  0
LINE
  8
_0-7_5-4図補助2
  6
CONTINUOUS
 62
    7
 10
60.480796249186085
 20
26.799369762128634
 11
61.157397678523409
 21
27.475971191465788
  0
LINE
  8
_0-7_5-4図補助2
  6
CONTINUOUS
 62
    7
 10
61.362382722999598
 20
27.680956235941807
 11
62.183824563492806
 21
28.502398076435696
  0
LINE
  8
_0-7_5-4図補助2
  6
CONTINUOUS
 62
    7
 10
60.480796249186085
 20
27.453535759680307
 11
61.532999343045219
 21
28.505738853539611
  0
LINE
  8
_0-7_5-4図補助2
  6
CONTINUOUS
 62
    7
 10
62.053366512477908
 20
29.026106022972471
 11
62.340626216431417
 21
29.31336572692598
  0
LINE
  8
_0-7_5-4図補助2
  6
CONTINUOUS
 62
    7
 10
60.480796249186085
 20
28.107701757232491
 11
60.878833345493547
 21
28.505738853539611
  0
LINE
  8
_0-7_5-4図補助2
  6
CONTINUOUS
 62
    7
 10
61.399200514925894
 20
29.026106022972471
 11
61.993905904704718
 21
29.620811412750953
  0
LINE
  8
_0-7_5-4図補助2
  6
CONTINUOUS
 62
    7
 10
60.745197196882316
 20
29.026268702480564
 11
61.339739907152705
 21
29.620811412750953
  0
LINE
  8
_0-7_5-4図補助2
  6
CONTINUOUS
 62
    7
 10
60.493191938285293
 20
29.428429441435213
 11
60.673178220501484
 21
29.608415723651746
  0
LINE
  8
_0-7_5-4図補助2
  6
CONTINUOUS
 62
    7
 10
77.218105671718547
 20
27.836695243414823
 11
77.814413675218759
 21
28.433003246915376
  0
LINE
  8
_0-7_5-4図補助2
  6
CONTINUOUS
 62
    7
 10
76.563939674166534
 20
27.836695243414823
 11
77.654286595547831
 21
28.927042164796461
  0
LINE
  8
_0-7_5-4図補助2
  6
CONTINUOUS
 62
    7
 10
75.90977367661452
 20
27.836695243414823
 11
77.024846235826033
 21
28.951767802626335
  0
LINE
  8
_0-7_5-4図補助2
  6
CONTINUOUS
 62
    7
 10
75.255607679062848
 20
27.836695243414823
 11
76.380162796239745
 21
28.961250360592061
  0
LINE
  8
_0-7_5-4図補助2
  6
CONTINUOUS
 62
    7
 10
67.835159264417541
 20
21.07041282632153
 11
69.261722540764765
 21
22.496976102669095
  0
LINE
  8
_0-7_5-4図補助2
  6
CONTINUOUS
 62
    7
 10
74.601441681510835
 20
27.836695243414823
 11
76.177762709260548
 21
29.413016271164537
  0
LINE
  8
_0-7_5-4図補助2
  6
CONTINUOUS
 62
    7
 10
76.682910359241589
 20
29.918163921145748
 11
77.368054433514715
 21
30.603307995418703
  0
LINE
  8
_0-7_5-4図補助2
  6
CONTINUOUS
 62
    7
 10
67.39936449560031
 20
21.288784055056482
 11
69.425415174859097
 21
23.314834734315099
  0
LINE
  8
_0-7_5-4図補助2
  6
CONTINUOUS
 62
    7
 10
73.947275683958821
 20
27.836695243414823
 11
77.287236571634082
 21
31.176656131089914
  0
LINE
  8
_0-7_5-4図補助2
  6
CONTINUOUS
 62
    7
 10
67.39936449560031
 20
21.942950052608325
 11
69.482374083698176
 21
24.02595964070585
  0
LINE
  8
_0-7_5-4図補助2
  6
CONTINUOUS
 62
    7
 10
73.293109686407149
 20
27.836695243414823
 11
74.40818224561832
 21
28.951767802626335
  0
LINE
  8
_0-7_5-4図補助2
  6
CONTINUOUS
 62
    7
 10
74.838684984148074
 20
29.382270541155918
 11
76.712665584387139
 21
31.256251141394813
  0
LINE
  8
_0-7_5-4図補助2
  6
CONTINUOUS
 62
    7
 10
67.39936449560031
 20
22.597116050160167
 11
69.482374083698176
 21
24.680125638257863
  0
LINE
  8
_0-7_5-4図補助2
  6
CONTINUOUS
 62
    7
 10
72.638943688854795
 20
27.836695243414823
 11
73.754016248066307
 21
28.951767802626335
  0
LINE
  8
_0-7_5-4図補助2
  6
CONTINUOUS
 62
    7
 10
74.690091977505233
 20
29.887843532065261
 11
76.058499586835126
 21
31.256251141394813
  0
LINE
  8
_0-7_5-4図補助2
  6
CONTINUOUS
 62
    7
 10
67.39936449560031
 20
23.25128204771201
 11
69.482374083698176
 21
25.334291635809706
  0
LINE
  8
_0-7_5-4図補助2
  6
CONTINUOUS
 62
    7
 10
71.984777691303123
 20
27.836695243414823
 11
73.099850250514635
 21
28.951767802626335
  0
LINE
  8
_0-7_5-4図補助2
  6
CONTINUOUS
 62
    7
 10
74.066246369033877
 20
29.918163921145748
 11
75.404333589283112
 21
31.256251141394813
  0
LINE
  8
_0-7_5-4図補助2
  6
CONTINUOUS
 62
    7
 10
67.39936449560031
 20
23.905448045264023
 11
67.768977703328289
 21
24.275061252991662
  0
LINE
  8
_0-7_5-4図補助2
  6
CONTINUOUS
 62
    7
 10
68.053743026855216
 20
24.559826576518589
 11
69.482374083698176
 21
25.988457633361548
  0
LINE
  8
_0-7_5-4図補助2
  6
CONTINUOUS
 62
    7
 10
71.330611693751109
 20
27.836695243414823
 11
72.445684252962963
 21
28.951767802626335
  0
LINE
  8
_0-7_5-4図補助2
  6
CONTINUOUS
 62
    7
 10
73.412080371482205
 20
29.918163921145748
 11
74.75016759173144
 21
31.256251141394813
  0
LINE
  8
_0-7_5-4図補助2
  6
CONTINUOUS
 62
    7
 10
68.200954034258359
 20
25.361203581473745
 11
69.482374083698176
 21
26.642623630913562
  0
LINE
  8
_0-7_5-4図補助2
  6
CONTINUOUS
 62
    7
 10
70.676445696199096
 20
27.836695243414823
 11
71.958893000834848
 21
29.119142548050235
  0
LINE
  8
_0-7_5-4図補助2
  6
CONTINUOUS
 62
    7
 10
72.757914373930191
 20
29.918163921145918
 11
74.264578788125561
 21
31.424828335340948
  0
LINE
  8
_0-7_5-4図補助2
  6
CONTINUOUS
 62
    7
 10
68.150599191000481
 20
25.965014735768221
 11
71.986631302612238
 21
29.801046847379808
  0
LINE
  8
_0-7_5-4図補助2
  6
CONTINUOUS
 62
    7
 10
72.05446698683653
 20
29.868882531604271
 11
74.171176563182996
 21
31.985592107950055
  0
LINE
  8
_0-7_5-4図補助2
  6
CONTINUOUS
 62
    7
 10
68.100244347742944
 20
26.568825890062357
 11
73.605389649892629
 21
32.073971192211701
  0
LINE
  8
_0-7_5-4図補助2
  6
CONTINUOUS
 62
    7
 10
68.049889504485066
 20
27.172637044356492
 11
69.829020262754909
 21
28.951767802626335
  0
LINE
  8
_0-7_5-4図補助2
  6
CONTINUOUS
 62
    7
 10
70.589671010424411
 20
29.712418550295496
 11
72.133503601523387
 21
31.256251141394813
  0
LINE
  8
_0-7_5-4図補助2
  6
CONTINUOUS
 62
    7
 10
72.458102774768861
 20
31.580850314640287
 11
72.951223652340275
 21
32.073971192211701
  0
LINE
  8
_0-7_5-4図補助2
  6
CONTINUOUS
 62
    7
 10
67.999534661227528
 20
27.776448198650627
 11
69.174854265203237
 21
28.951767802626335
  0
LINE
  8
_0-7_5-4図補助2
  6
CONTINUOUS
 62
    7
 10
70.141250383722479
 20
29.918163921145918
 11
71.479337603971715
 21
31.256251141394813
  0
LINE
  8
_0-7_5-4図補助2
  6
CONTINUOUS
 62
    7
 10
67.994510357727393
 20
28.425589892702504
 11
68.520688267651224
 21
28.951767802626335
  0
LINE
  8
_0-7_5-4図補助2
  6
CONTINUOUS
 62
    7
 10
69.487084386170807
 20
29.918163921145748
 11
70.825171606420042
 21
31.256251141394813
  0
LINE
  8
_0-7_5-4図補助2
  6
CONTINUOUS
 62
    7
 10
69.110408461988015
 20
30.195653994514799
 11
70.171005608868029
 21
31.256251141394813
  0
LINE
  8
_0-7_5-4図補助2
  6
CONTINUOUS
 62
    7
 10
69.110408461988015
 20
30.849819992066813
 11
69.516839611316016
 21
31.256251141394813
  0
LINE
  8
_0-7_5-4図補助2
  6
CONTINUOUS
 62
    7
 10
76.638178209476848
 20
21.369273803206028
 11
77.814413675218759
 21
22.545509268948109
  0
LINE
  8
_0-7_5-4図補助2
  6
CONTINUOUS
 62
    7
 10
75.984012211924835
 20
21.369273803206028
 11
77.814413675218759
 21
23.199675266499952
  0
LINE
  8
_0-7_5-4図補助2
  6
CONTINUOUS
 62
    7
 10
75.329846214373163
 20
21.369273803206028
 11
77.63432955314164
 21
23.673757141974676
  0
LINE
  8
_0-7_5-4図補助2
  6
CONTINUOUS
 62
    7
 10
74.675680216821149
 20
21.369273803206028
 11
76.980163555589968
 21
23.673757141974676
  0
LINE
  8
_0-7_5-4図補助2
  6
CONTINUOUS
 62
    7
 10
74.021514219269477
 20
21.369273803206028
 11
76.325997558037955
 21
23.673757141974676
  0
LINE
  8
_0-7_5-4図補助2
  6
CONTINUOUS
 62
    7
 10
73.367348221717464
 20
21.369273803206028
 11
75.671831560485941
 21
23.673757141974676
  0
LINE
  8
_0-7_5-4図補助2
  6
CONTINUOUS
 62
    7
 10
72.713182224165791
 20
21.369273803206028
 11
75.052772541409638
 21
23.708864120450045
  0
LINE
  8
_0-7_5-4図補助2
  6
CONTINUOUS
 62
    7
 10
75.686709173058887
 20
24.342800752099635
 11
76.103369708831053
 21
24.759461287871801
  0
LINE
  8
_0-7_5-4図補助2
  6
CONTINUOUS
 62
    7
 10
72.059016226613437
 20
21.369273803206028
 11
75.963775980114121
 21
25.274033556706712
  0
LINE
  8
_0-7_5-4図補助2
  6
CONTINUOUS
 62
    7
 10
76.668783715361485
 20
25.979041291954246
 11
76.920894380599918
 21
26.231151957192509
  0
LINE
  8
_0-7_5-4図補助2
  6
CONTINUOUS
 62
    7
 10
71.404850229061765
 20
21.369273803206028
 11
75.344773296474784
 21
25.309196870619047
  0
LINE
  8
_0-7_5-4図補助2
  6
CONTINUOUS
 62
    7
 10
76.013816906599402
 20
25.978240480744006
 11
76.791090145449914
 21
26.755513719594688
  0
LINE
  8
_0-7_5-4図補助2
  6
CONTINUOUS
 62
    7
 10
70.750829883092194
 20
21.369419454788471
 11
73.061601684739969
 21
23.680191256436416
  0
LINE
  8
_0-7_5-4図補助2
  6
CONTINUOUS
 62
    7
 10
73.269994143286397
 20
23.888583714982673
 11
74.917187328440775
 21
25.535776900137392
  0
LINE
  8
_0-7_5-4図補助2
  6
CONTINUOUS
 62
    7
 10
75.359650909047048
 20
25.978240480744006
 11
76.177370959863936
 21
26.795960531560212
  0
LINE
  8
_0-7_5-4図補助2
  6
CONTINUOUS
 62
    7
 10
70.254241081279758
 20
21.526996650528389
 11
72.401001572726557
 21
23.673757141974676
  0
LINE
  8
_0-7_5-4図補助2
  6
CONTINUOUS
 62
    7
 10
73.063243461091531
 20
24.335999030339991
 11
75.523204962312263
 21
26.795960531560212
  0
LINE
  8
_0-7_5-4図補助2
  6
CONTINUOUS
 62
    7
 10
69.949452062245598
 20
21.876373629046071
 11
71.746835575174543
 21
23.673757141974676
  0
LINE
  8
_0-7_5-4図補助2
  6
CONTINUOUS
 62
    7
 10
72.415879185299502
 20
24.342800752099635
 11
74.972520368420362
 21
26.899441935220494
  0
LINE
  8
_0-7_5-4図補助2
  6
CONTINUOUS
 62
    7
 10
69.854340324973066
 20
22.435427889325041
 11
71.092669577622871
 21
23.673757141974676
  0
LINE
  8
_0-7_5-4図補助2
  6
CONTINUOUS
 62
    7
 10
71.950796328018953
 20
24.531883892371098
 11
72.728109306266731
 21
25.309196870619047
  0
LINE
  8
_0-7_5-4図補助2
  6
CONTINUOUS
 62
    7
 10
73.246936165889736
 20
25.828023730242052
 11
74.817742347854335
 21
27.39882991220631
  0
LINE
  8
_0-7_5-4図補助2
  6
CONTINUOUS
 62
    7
 10
69.854340324973066
 20
23.089593886877054
 11
70.438503580070858
 21
23.673757141974676
  0
LINE
  8
_0-7_5-4図補助2
  6
CONTINUOUS
 62
    7
 10
72.742986918839676
 20
25.978240480744006
 11
74.229750579780841
 21
27.465004141685171
  0
LINE
  8
_0-7_5-4図補助2
  6
CONTINUOUS
 62
    7
 10
71.097211980569966
 20
24.986631540025968
 11
71.47767434605845
 21
25.367093905514281
  0
LINE
  8
_0-7_5-4図補助2
  6
CONTINUOUS
 62
    7
 10
72.088820921288004
 20
25.978240480744006
 11
72.90654097210421
 21
26.795960531560212
  0
LINE
  8
_0-7_5-4図補助2
  6
CONTINUOUS
 62
    7
 10
73.276428257748137
 20
27.165847817204138
 11
73.575584582229169
 21
27.465004141685171
  0
LINE
  8
_0-7_5-4図補助2
  6
CONTINUOUS
 62
    7
 10
70.170905923832549
 20
24.714491480840394
 11
72.252374974552538
 21
26.795960531560212
  0
LINE
  8
_0-7_5-4図補助2
  6
CONTINUOUS
 62
    7
 10
69.779947324543912
 20
24.97769887910377
 11
71.798598122964052
 21
26.99634967752408
  0
LINE
  8
_0-7_5-4図補助2
  6
CONTINUOUS
 62
    7
 10
69.779947324543912
 20
25.631864876655612
 11
70.126322928632305
 21
25.978240480744006
  0
LINE
  8
_0-7_5-4図補助2
  6
CONTINUOUS
 62
    7
 10
70.306400016407622
 20
26.158317568519152
 11
71.537776446881423
 21
27.389693998993295
  0
LINE
  8
_0-7_5-4図補助2
  6
CONTINUOUS
 62
    7
 10
70.375092567106265
 20
26.881176116769637
 11
70.884582371675322
 21
27.390665921339036
  0
LINE
  8
_0-7_5-4図補助2
  6
CONTINUOUS
 62
    7
 10
81.650844717110601
 20
21.148612330424186
 11
82.0237162656951
 21
21.521483879009196
  0
LINE
  8
_0-7_5-4図補助2
  6
CONTINUOUS
 62
    7
 10
80.996678719558247
 20
21.148612330424186
 11
82.0237162656951
 21
22.175649876560868
  0
LINE
  8
_0-7_5-4図補助2
  6
CONTINUOUS
 62
    7
 10
80.684638540582966
 20
21.490738149000748
 11
82.0237162656951
 21
22.829815874112882
  0
LINE
  8
_0-7_5-4図補助2
  6
CONTINUOUS
 62
    7
 10
80.684638540582966
 20
22.144904146552591
 11
82.0237162656951
 21
23.483981871664724
  0
LINE
  8
_0-7_5-4図補助2
  6
CONTINUOUS
 62
    7
 10
80.684638540582966
 20
22.799070144104604
 11
82.0237162656951
 21
24.138147869216908
  0
LINE
  8
_0-7_5-4図補助2
  6
CONTINUOUS
 62
    7
 10
80.684638540582966
 20
23.453236141656447
 11
82.0237162656951
 21
24.792313866768581
  0
LINE
  8
_0-7_5-4図補助2
  6
CONTINUOUS
 62
    7
 10
82.542952457801618
 20
25.311550058874758
 11
82.767648128680491
 21
25.536245729753972
  0
LINE
  8
_0-7_5-4図補助2
  6
CONTINUOUS
 62
    7
 10
79.138274172394233
 20
22.561037771019556
 11
82.767590841406374
 21
26.190354440031712
  0
LINE
  8
_0-7_5-4図補助2
  6
CONTINUOUS
 62
    7
 10
78.899201573766447
 20
22.976131169943443
 11
82.521183713778484
 21
26.598113309955664
  0
LINE
  8
_0-7_5-4図補助2
  6
CONTINUOUS
 62
    7
 10
78.899201573766447
 20
23.630297167495456
 11
82.236644763049242
 21
26.967740356778421
  0
LINE
  8
_0-7_5-4図補助2
  6
CONTINUOUS
 62
    7
 10
78.899201573766447
 20
24.284463165047299
 11
82.0237162656951
 21
27.408977856976293
  0
LINE
  8
_0-7_5-4図補助2
  6
CONTINUOUS
 62
    7
 10
78.899201573766447
 20
24.938629162598971
 11
79.223004250334668
 21
25.262431839167533
  0
LINE
  8
_0-7_5-4図補助2
  6
CONTINUOUS
 62
    7
 10
80.359036921636005
 20
26.39846451046887
 11
82.0237162656951
 21
28.063143854528306
  0
LINE
  8
_0-7_5-4図補助2
  6
CONTINUOUS
 62
    7
 10
82.399876265080309
 20
28.439303853913174
 11
82.613312095358694
 21
28.652739684191573
  0
LINE
  8
_0-7_5-4図補助2
  6
CONTINUOUS
 62
    7
 10
80.684638540582966
 20
27.378232126967845
 11
82.618862127822524
 21
29.312455714207402
  0
LINE
  8
_0-7_5-4図補助2
  6
CONTINUOUS
 62
    7
 10
80.684638540582966
 20
28.032398124519688
 11
82.276236126407582
 21
29.623995710344133
  0
LINE
  8
_0-7_5-4図補助2
  6
CONTINUOUS
 62
    7
 10
80.431076511294066
 20
28.4330020927828
 11
82.0237162656951
 21
30.025641847184005
  0
LINE
  8
_0-7_5-4図補助2
  6
CONTINUOUS
 62
    7
 10
79.77766224240878
 20
28.433753821449358
 11
82.0237162656951
 21
30.679807844735677
  0
LINE
  8
_0-7_5-4図補助2
  6
CONTINUOUS
 62
    7
 10
79.169663936764266
 20
28.479921513356857
 11
80.312907024414415
 21
29.623164601007005
  0
LINE
  8
_0-7_5-4図補助2
  6
CONTINUOUS
 62
    7
 10
80.684638540582966
 20
29.994896117175557
 11
82.0237162656951
 21
31.333973842287691
  0
LINE
  8
_0-7_5-4図補助2
  6
CONTINUOUS
 62
    7
 10
79.047988194189145
 20
29.012411768333408
 11
79.658741026862401
 21
29.623164601007005
  0
LINE
  8
_0-7_5-4図補助2
  6
CONTINUOUS
 62
    7
 10
80.684638540582966
 20
30.649062114727229
 11
81.982516112053133
 21
31.946939686197567
  0
LINE
  8
_0-7_5-4図補助2
  6
CONTINUOUS
 62
    7
 10
80.684638540582966
 20
31.303228112279413
 11
81.457734808771477
 21
32.076324380467753
  0
LINE
  8
_0-7_5-4図補助2
  6
CONTINUOUS
 62
    7
 10
90.041155285221691
 20
21.034764930360637
 11
90.504541858074333
 21
21.498151503212938
  0
LINE
  8
_0-7_5-4図補助2
  6
CONTINUOUS
 62
    7
 10
89.556606977291779
 20
21.204382619982738
 11
90.504541858074333
 21
22.152317500764951
  0
LINE
  8
_0-7_5-4図補助2
  6
CONTINUOUS
 62
    7
 10
89.170508431187102
 20
21.472450071429733
 11
90.504541858074333
 21
22.806483498316965
  0
LINE
  8
_0-7_5-4図補助2
  6
CONTINUOUS
 62
    7
 10
88.868991063342079
 20
21.825098701136739
 11
90.504541858074333
 21
23.460649495868807
  0
LINE
  8
_0-7_5-4図補助2
  6
CONTINUOUS
 62
    7
 10
87.538338695077698
 20
21.148612330424186
 11
87.975173028272422
 21
21.585446663619081
  0
LINE
  8
_0-7_5-4図補助2
  6
CONTINUOUS
 62
    7
 10
88.64657469214734
 20
22.256848327493998
 11
90.43752742362534
 21
24.047801058971658
  0
LINE
  8
_0-7_5-4図補助2
  6
CONTINUOUS
 62
    7
 10
86.884172697525685
 20
21.148612330424186
 11
87.975173028272422
 21
22.239612661170924
  0
LINE
  8
_0-7_5-4図補助2
  6
CONTINUOUS
 62
    7
 10
88.488376305463873
 20
22.752815938362204
 11
89.827875428308801
 21
24.092315061207302
  0
LINE
  8
_0-7_5-4図補助2
  6
CONTINUOUS
 62
    7
 10
86.561702302730453
 20
21.480307933180967
 11
87.975173028272422
 21
22.893778658722766
  0
LINE
  8
_0-7_5-4図補助2
  6
CONTINUOUS
 62
    7
 10
88.40814064135084
 20
23.32674627180117
 11
89.416720302389152
 21
24.335325932839481
  0
LINE
  8
_0-7_5-4図補助2
  6
CONTINUOUS
 62
    7
 10
86.561702302730453
 20
22.13447393073281
 11
87.975173028272422
 21
23.54794465627478
  0
LINE
  8
_0-7_5-4図補助2
  6
CONTINUOUS
 62
    7
 10
88.364025184897116
 20
23.936796812899473
 11
89.253088024906162
 21
24.82585965290869
  0
LINE
  8
_0-7_5-4図補助2
  6
CONTINUOUS
 62
    7
 10
86.561702302730453
 20
22.788639928284823
 11
87.975173028272422
 21
24.202110653826622
  0
LINE
  8
_0-7_5-4図補助2
  6
CONTINUOUS
 62
    7
 10
88.364025184897116
 20
24.590962810451316
 11
89.239857752955402
 21
25.466795378509772
  0
LINE
  8
_0-7_5-4図補助2
  6
CONTINUOUS
 62
    7
 10
89.902332484137261
 20
26.129270109691646
 11
90.206969236792972
 21
26.433906862347357
  0
LINE
  8
_0-7_5-4図補助2
  6
CONTINUOUS
 62
    7
 10
84.440596238729711
 20
21.321699861836095
 11
85.516259167473379
 21
22.397362790579081
  0
LINE
  8
_0-7_5-4図補助2
  6
CONTINUOUS
 62
    7
 10
86.561702302730453
 20
23.442805925836836
 11
87.975173028272422
 21
24.856276651378465
  0
LINE
  8
_0-7_5-4図補助2
  6
CONTINUOUS
 62
    7
 10
88.364025184897116
 20
25.245128808003159
 11
89.239857752955402
 21
26.120961376061445
  0
LINE
  8
_0-7_5-4図補助2
  6
CONTINUOUS
 62
    7
 10
89.248166486585603
 20
26.129270109691646
 11
90.206969236792972
 21
27.088072859899199
  0
LINE
  8
_0-7_5-4図補助2
  6
CONTINUOUS
 62
    7
 10
83.563720912216866
 20
21.098990532874581
 11
85.927508325053111
 21
23.462777945711338
  0
LINE
  8
_0-7_5-4図補助2
  6
CONTINUOUS
 62
    7
 10
86.561702302730453
 20
24.096971923388679
 11
87.975173028272422
 21
25.510442648930479
  0
LINE
  8
_0-7_5-4図補助2
  6
CONTINUOUS
 62
    7
 10
88.353678317130232
 20
25.888947937788288
 11
89.932087709283167
 21
27.467357329940882
  0
LINE
  8
_0-7_5-4図補助2
  6
CONTINUOUS
 62
    7
 10
83.437186991236715
 20
21.626622609446457
 11
85.966556440603355
 21
24.155992058813268
  0
LINE
  8
_0-7_5-4図補助2
  6
CONTINUOUS
 62
    7
 10
86.561702302730453
 20
24.751137920940522
 11
89.277921711730812
 21
27.467357329940882
  0
LINE
  8
_0-7_5-4図補助2
  6
CONTINUOUS
 62
    7
 10
83.437186991236715
 20
22.280788606998641
 11
85.966556440603355
 21
24.810158056365111
  0
LINE
  8
_0-7_5-4図補助2
  6
CONTINUOUS
 62
    7
 10
86.561702302730453
 20
25.405303918492535
 11
88.62375571417914
 21
27.467357329940882
  0
LINE
  8
_0-7_5-4図補助2
  6
CONTINUOUS
 62
    7
 10
89.705808277697031
 20
28.549409893458773
 11
89.793684770865582
 21
28.637286386627494
  0
LINE
  8
_0-7_5-4図補助2
  6
CONTINUOUS
 62
    7
 10
83.437186991236715
 20
22.934954604550484
 11
85.966556440603355
 21
25.464324053916954
  0
LINE
  8
_0-7_5-4図補助2
  6
CONTINUOUS
 62
    7
 10
86.513225795817974
 20
26.010993409131714
 11
88.052606968240582
 21
27.550374581554337
  0
LINE
  8
_0-7_5-4図補助2
  6
CONTINUOUS
 62
    7
 10
89.010324055492831
 20
28.5080916688066
 11
89.835002995518082
 21
29.33277060883168
  0
LINE
  8
_0-7_5-4図補助2
  6
CONTINUOUS
 62
    7
 10
83.437186991236715
 20
23.589120602102497
 11
83.778166607732544
 21
23.930100218597971
  0
LINE
  8
_0-7_5-4図補助2
  6
CONTINUOUS
 62
    7
 10
84.999444956766112
 20
25.151378567631895
 11
87.975173028272422
 21
28.127106639138191
  0
LINE
  8
_0-7_5-4図補助2
  6
CONTINUOUS
 62
    7
 10
88.356158057941173
 20
28.5080916688066
 11
89.545569210487372
 21
29.69750282135297
  0
LINE
  8
_0-7_5-4図補助2
  6
CONTINUOUS
 62
    7
 10
84.999444956766112
 20
25.805544565183567
 11
88.891403212935359
 21
29.697502821352799
  0
LINE
  8
_0-7_5-4図補助2
  6
CONTINUOUS
 62
    7
 10
84.594666283376384
 20
26.054931889345681
 11
86.007091723971428
 21
27.467357329940882
  0
LINE
  8
_0-7_5-4図補助2
  6
CONTINUOUS
 62
    7
 10
86.561702302730453
 20
28.021967908700248
 11
88.237480122633031
 21
29.697745728602484
  0
LINE
  8
_0-7_5-4図補助2
  6
CONTINUOUS
 62
    7
 10
83.940500285824044
 20
26.054931889345681
 11
85.352925726419414
 21
27.467357329940882
  0
LINE
  8
_0-7_5-4図補助2
  6
CONTINUOUS
 62
    7
 10
86.378296705715513
 20
28.492728309236981
 11
87.975173028272422
 21
30.089604631793719
  0
LINE
  8
_0-7_5-4図補助2
  6
CONTINUOUS
 62
    7
 10
83.515284740078357
 20
26.283882341151838
 11
84.870431119643342
 21
27.639028720716482
  0
LINE
  8
_0-7_5-4図補助2
  6
CONTINUOUS
 62
    7
 10
85.739494067733105
 20
28.5080916688066
 11
87.975173028272422
 21
30.743770629345562
  0
LINE
  8
_0-7_5-4図補助2
  6
CONTINUOUS
 62
    7
 10
83.511580611230954
 20
26.934344209856107
 11
84.853974035046974
 21
28.276737633672127
  0
LINE
  8
_0-7_5-4図補助2
  6
CONTINUOUS
 62
    7
 10
85.082012371477219
 20
28.504775970102713
 11
86.274739222727661
 21
29.697502821352799
  0
LINE
  8
_0-7_5-4図補助2
  6
CONTINUOUS
 62
    7
 10
86.561702302730453
 20
29.984465901355776
 11
87.975173028272422
 21
31.397936626897575
  0
LINE
  8
_0-7_5-4図補助2
  6
CONTINUOUS
 62
    7
 10
83.511580611230954
 20
27.58851020740812
 11
85.688223497221259
 21
29.765153093398084
  0
LINE
  8
_0-7_5-4図補助2
  6
CONTINUOUS
 62
    7
 10
86.561702302730453
 20
30.638631898907619
 11
87.868281075633533
 21
31.945210671810372
  0
LINE
  8
_0-7_5-4図補助2
  6
CONTINUOUS
 62
    7
 10
83.511580611230954
 20
28.242676204959963
 11
85.594590199328138
 21
30.325685793057318
  0
LINE
  8
_0-7_5-4図補助2
  6
CONTINUOUS
 62
    7
 10
86.561702302730453
 20
31.292797896459632
 11
87.270890566392779
 21
32.001986160121447
  0
LINE
  8
_0-7_5-4図補助2
  6
CONTINUOUS
 62
    7
 10
83.511580611230954
 20
28.896842202511806
 11
85.594590199328138
 21
30.97985179060916
  0
LINE
  8
_0-7_5-4図補助2
  6
CONTINUOUS
 62
    7
 10
84.13860146968824
 20
30.178029058521105
 11
85.422561864828751
 21
31.461989453661289
  0
LINE
  8
_0-7_5-4図補助2
  6
CONTINUOUS
 62
    7
 10
84.181119473787192
 20
30.874713060171729
 11
84.788025404304051
 21
31.481618990688929
  0
LINE
  8
_0-7_5-4図補助2
  6
CONTINUOUS
 62
    7
 10
102.22734314961455
 20
21.44596483881881
 11
102.33306238279916
 21
21.551684072003383
  0
LINE
  8
_0-7_5-4図補助2
  6
CONTINUOUS
 62
    7
 10
101.57317715206256
 20
21.44596483881881
 11
102.33306238279916
 21
22.205850069555225
  0
LINE
  8
_0-7_5-4図補助2
  6
CONTINUOUS
 62
    7
 10
100.91901115451056
 20
21.44596483881881
 11
102.33306238279916
 21
22.860016067107239
  0
LINE
  8
_0-7_5-4図補助2
  6
CONTINUOUS
 62
    7
 10
100.26484515695886
 20
21.44596483881881
 11
102.33306238279916
 21
23.514182064659082
  0
LINE
  8
_0-7_5-4図補助2
  6
CONTINUOUS
 62
    7
 10
99.610679159406857
 20
21.44596483881881
 11
102.13817753220266
 21
23.973463211614757
  0
LINE
  8
_0-7_5-4図補助2
  6
CONTINUOUS
 62
    7
 10
98.96437844914368
 20
21.453830126107817
 11
101.48401153465096
 21
23.973463211614757
  0
LINE
  8
_0-7_5-4図補助2
  6
CONTINUOUS
 62
    7
 10
98.488525391505334
 20
21.632143066021143
 11
100.82984553709856
 21
23.973463211614757
  0
LINE
  8
_0-7_5-4図補助2
  6
CONTINUOUS
 62
    7
 10
98.201396523904521
 20
21.999180195972684
 11
100.17567953954686
 21
23.973463211614927
  0
LINE
  8
_0-7_5-4図補助2
  6
CONTINUOUS
 62
    7
 10
98.059022084965761
 20
22.510971754585938
 11
99.70697760753518
 21
24.158927277154675
  0
LINE
  8
_0-7_5-4図補助2
  6
CONTINUOUS
 62
    7
 10
97.997100035791789
 20
23.103215702963638
 11
99.619774947475833
 21
24.725890614647341
  0
LINE
  8
_0-7_5-4図補助2
  6
CONTINUOUS
 62
    7
 10
97.935177986618157
 20
23.695459651341679
 11
99.536652582058252
 21
25.296934246782115
  0
LINE
  8
_0-7_5-4図補助2
  6
CONTINUOUS
 62
    7
 10
97.873255937444185
 20
24.28770359971989
 11
99.453530216641013
 21
25.867977878916548
  0
LINE
  8
_0-7_5-4図補助2
  6
CONTINUOUS
 62
    7
 10
95.17921205271756
 20
22.247825712544937
 11
95.930451812199593
 21
22.999065472027297
  0
LINE
  8
_0-7_5-4図補助2
  6
CONTINUOUS
 62
    7
 10
97.811333888270553
 20
24.879947548097931
 11
99.370407851223433
 21
26.439021511051322
  0
LINE
  8
_0-7_5-4図補助2
  6
CONTINUOUS
 62
    7
 10
101.06778728023795
 20
28.136400940065499
 11
101.73791652067136
 21
28.806530180499266
  0
LINE
  8
_0-7_5-4図補助2
  6
CONTINUOUS
 62
    7
 10
93.729991526839456
 20
21.452771184218676
 11
96.455998620651314
 21
24.178778278030535
  0
LINE
  8
_0-7_5-4図補助2
  6
CONTINUOUS
 62
    7
 10
97.749411839096581
 20
25.472191496475801
 11
99.28728548580618
 21
27.010065143185756
  0
LINE
  8
_0-7_5-4図補助2
  6
CONTINUOUS
 62
    7
 10
100.41362128268625
 20
28.136400940065499
 11
101.69669554953606
 21
29.419475206915621
  0
LINE
  8
_0-7_5-4図補助2
  6
CONTINUOUS
 62
    7
 10
92.994681336530846
 20
21.37162699146208
 11
96.390572261633395
 21
24.767517916564969
  0
LINE
  8
_0-7_5-4図補助2
  6
CONTINUOUS
 62
    7
 10
97.687489789922608
 20
26.064435444853842
 11
99.204163120388955
 21
27.581108775320189
  0
LINE
  8
_0-7_5-4図補助2
  6
CONTINUOUS
 62
    7
 10
99.759455285134266
 20
28.136400940065499
 11
101.17188072572925
 21
29.54882638066087
  0
LINE
  8
_0-7_5-4図補助2
  6
CONTINUOUS
 62
    7
 10
92.340515338978491
 20
21.37162699146208
 11
95.506127854537183
 21
24.537239507020416
  0
LINE
  8
_0-7_5-4図補助2
  6
CONTINUOUS
 62
    7
 10
97.625567740748622
 20
26.656679393231883
 11
100.51771472817755
 21
29.54882638066087
  0
LINE
  8
_0-7_5-4図補助2
  6
CONTINUOUS
 62
    7
 10
91.686349341426833
 20
21.37162699146208
 11
95.045887544156074
 21
24.731165194191334
  0
LINE
  8
_0-7_5-4図補助2
  6
CONTINUOUS
 62
    7
 10
97.563645691574663
 20
27.248923341609924
 11
99.86354873062561
 21
29.54882638066087
  0
LINE
  8
_0-7_5-4図補助2
  6
CONTINUOUS
 62
    7
 10
100.68126878144245
 20
30.366546431477587
 11
101.44034389939036
 21
31.125621549425631
  0
LINE
  8
_0-7_5-4図補助2
  6
CONTINUOUS
 62
    7
 10
91.397260961047152
 20
21.736704608634255
 11
95.042527895109671
 21
25.381971542696618
  0
LINE
  8
_0-7_5-4図補助2
  6
CONTINUOUS
 62
    7
 10
95.566812174055883
 20
25.906255821642816
 11
96.307212619792992
 21
26.646656267379939
  0
LINE
  8
_0-7_5-4図補助2
  6
CONTINUOUS
 62
    7
 10
97.501723642400691
 20
27.841167289987965
 11
99.20938273307361
 21
29.54882638066087
  0
LINE
  8
_0-7_5-4図補助2
  6
CONTINUOUS
 62
    7
 10
100.07362547373879
 20
30.41306912132589
 11
101.44034389939036
 21
31.779787546977644
  0
LINE
  8
_0-7_5-4図補助2
  6
CONTINUOUS
 62
    7
 10
91.397260961047152
 20
22.390870606186098
 11
93.112978351666186
 21
24.106587996805473
  0
LINE
  8
_0-7_5-4図補助2
  6
CONTINUOUS
 62
    7
 10
93.629057169567702
 20
24.622666814706662
 11
96.196697011938625
 21
27.190306657077571
  0
LINE
  8
_0-7_5-4図補助2
  6
CONTINUOUS
 62
    7
 10
97.142791294926568
 20
28.136400940065499
 11
98.871673658719999
 21
29.865283303858945
  0
LINE
  8
_0-7_5-4図補助2
  6
CONTINUOUS
 62
    7
 10
99.952479553855198
 20
30.946089198994144
 11
101.15705295567456
 21
32.150662600813547
  0
LINE
  8
_0-7_5-4図補助2
  6
CONTINUOUS
 62
    7
 10
91.397260961047152
 20
23.045036603738112
 11
92.400025416280698
 21
24.047801058971658
  0
LINE
  8
_0-7_5-4図補助2
  6
CONTINUOUS
 62
    7
 10
93.629057169567702
 20
25.276832812258675
 11
95.596567026211844
 21
27.244342668902817
  0
LINE
  8
_0-7_5-4図補助2
  6
CONTINUOUS
 62
    7
 10
96.488625297374881
 20
28.136400940065499
 11
98.78855129330276
 21
30.436326935993549
  0
LINE
  8
_0-7_5-4図補助2
  6
CONTINUOUS
 62
    7
 10
99.952479553855198
 20
31.600255196546328
 11
100.50288695812296
 21
32.150662600813547
  0
LINE
  8
_0-7_5-4図補助2
  6
CONTINUOUS
 62
    7
 10
91.397260961047152
 20
23.699202601289954
 11
91.745859418729012
 21
24.047801058971658
  0
LINE
  8
_0-7_5-4図補助2
  6
CONTINUOUS
 62
    7
 10
93.536084584471652
 20
25.838026224714298
 11
94.942401028660171
 21
27.244342668902817
  0
LINE
  8
_0-7_5-4図補助2
  6
CONTINUOUS
 62
    7
 10
95.834459299822527
 20
28.136400940065499
 11
98.705428927885521
 21
31.007370568128152
  0
LINE
  8
_0-7_5-4図補助2
  6
CONTINUOUS
 62
    7
 10
92.950148183848171
 20
25.906255821642816
 11
94.288235031108172
 21
27.244342668902817
  0
LINE
  8
_0-7_5-4図補助2
  6
CONTINUOUS
 62
    7
 10
95.180293302270854
 20
28.136400940065499
 11
96.592718742866225
 21
29.54882638066087
  0
LINE
  8
_0-7_5-4図補助2
  6
CONTINUOUS
 62
    7
 10
97.254035445705142
 20
30.210143083499787
 11
98.622306562468282
 21
31.578414200262927
  0
LINE
  8
_0-7_5-4図補助2
  6
CONTINUOUS
 62
    7
 10
92.314932859467319
 20
25.925206494813978
 11
93.634069033556159
 21
27.244342668902817
  0
LINE
  8
_0-7_5-4図補助2
  6
CONTINUOUS
 62
    7
 10
94.526127304718841
 20
28.136400940065499
 11
95.938552745314212
 21
29.54882638066087
  0
LINE
  8
_0-7_5-4図補助2
  6
CONTINUOUS
 62
    7
 10
97.19211339653117
 20
30.802387031877828
 11
98.477161128583191
 21
32.087434763929508
  0
LINE
  8
_0-7_5-4図補助2
  6
CONTINUOUS
 62
    7
 10
92.141192824032544
 20
26.405632456931215
 11
92.979903036004487
 21
27.244342668902817
  0
LINE
  8
_0-7_5-4図補助2
  6
CONTINUOUS
 62
    7
 10
93.871961307167169
 20
28.136400940065499
 11
95.284386747762213
 21
29.54882638066087
  0
LINE
  8
_0-7_5-4図補助2
  6
CONTINUOUS
 62
    7
 10
97.130191347357552
 20
31.394630980255528
 11
97.886222967915216
 21
32.150662600813547
  0
LINE
  8
_0-7_5-4図補助2
  6
CONTINUOUS
 62
    7
 10
92.166178992277707
 20
27.084784622728392
 11
92.30075087020731
 21
27.219356500657483
  0
LINE
  8
_0-7_5-4図補助2
  6
CONTINUOUS
 62
    7
 10
93.217795309615155
 20
28.136400940065499
 11
94.63022075021054
 21
29.54882638066087
  0
LINE
  8
_0-7_5-4図補助2
  6
CONTINUOUS
 62
    7
 10
97.068269298183566
 20
31.986874928633739
 11
97.232056970363203
 21
32.150662600813547
  0
LINE
  8
_0-7_5-4図補助2
  6
CONTINUOUS
 62
    7
 10
92.563629312063483
 20
28.136400940065499
 11
93.976054752658513
 21
29.54882638066087
  0
LINE
  8
_0-7_5-4図補助2
  6
CONTINUOUS
 62
    7
 10
91.909463314511129
 20
28.136400940065499
 11
93.3218887551065
 21
29.54882638066087
  0
LINE
  8
_0-7_5-4図補助2
  6
CONTINUOUS
 62
    7
 10
91.332121354204375
 20
28.213224977310432
 11
92.667722757554827
 21
29.54882638066087
  0
LINE
  8
_0-7_5-4図補助2
  6
CONTINUOUS
 62
    7
 10
91.248474340624114
 20
28.78374396128217
 11
92.013556760002814
 21
29.54882638066087
  0
LINE
  8
_0-7_5-4図補助2
  6
CONTINUOUS
 62
    7
 10
112.99135199182926
 20
21.743317720202839
 11
113.41765042497346
 21
22.16961615334688
  0
LINE
  8
_0-7_5-4図補助2
  6
CONTINUOUS
 62
    7
 10
112.33718599427726
 20
21.743317720202839
 11
113.39451392613945
 21
22.800645652065072
  0
LINE
  8
_0-7_5-4図補助2
  6
CONTINUOUS
 62
    7
 10
111.68301999672525
 20
21.743317720202839
 11
113.23876008916166
 21
23.299057812639234
  0
LINE
  8
_0-7_5-4図補助2
  6
CONTINUOUS
 62
    7
 10
111.02885399917356
 20
21.743317720202839
 11
113.02421368355375
 21
23.738677404583228
  0
LINE
  8
_0-7_5-4図補助2
  6
CONTINUOUS
 62
    7
 10
110.37468800162186
 20
21.743317720202839
 11
112.80962637443376
 21
24.178256093015051
  0
LINE
  8
_0-7_5-4図補助2
  6
CONTINUOUS
 62
    7
 10
109.72052200406955
 20
21.743317720202839
 11
112.59503906531376
 21
24.617834781447044
  0
LINE
  8
_0-7_5-4図補助2
  6
CONTINUOUS
 62
    7
 10
113.73478366481756
 20
25.757579380950887
 11
114.01279628710056
 21
26.0355920032342
  0
LINE
  8
_0-7_5-4図補助2
  6
CONTINUOUS
 62
    7
 10
109.06635600651785
 20
21.743317720202839
 11
112.38045175619375
 21
25.057413469879037
  0
LINE
  8
_0-7_5-4図補助2
  6
CONTINUOUS
 62
    7
 10
113.08061766726556
 20
25.757579380950887
 11
114.01279628710056
 21
26.689758000786043
  0
LINE
  8
_0-7_5-4図補助2
  6
CONTINUOUS
 62
    7
 10
108.41219000896545
 20
21.743317720202839
 11
110.86934387291046
 21
24.200471584147834
  0
LINE
  8
_0-7_5-4図補助2
  6
CONTINUOUS
 62
    7
 10
111.09258886286976
 20
24.423716574107146
 11
112.20911197511406
 21
25.5402396863511
  0
LINE
  8
_0-7_5-4図補助2
  6
CONTINUOUS
 62
    7
 10
112.42055980309196
 20
25.75168751432912
 11
113.69020066961696
 21
27.021328380854158
  0
LINE
  8
_0-7_5-4図補助2
  6
CONTINUOUS
 62
    7
 10
107.75802401141385
 20
21.743317720202839
 11
110.21118379087456
 21
24.196477499663587
  0
LINE
  8
_0-7_5-4図補助2
  6
CONTINUOUS
 62
    7
 10
110.96913612059996
 20
24.954429829389511
 11
113.03603467206536
 21
27.021328380854158
  0
LINE
  8
_0-7_5-4図補助2
  6
CONTINUOUS
 62
    7
 10
107.10385801386215
 20
21.743317720202839
 11
109.55701779332226
 21
24.196477499663587
  0
LINE
  8
_0-7_5-4図補助2
  6
CONTINUOUS
 62
    7
 10
110.82368222599065
 20
25.463141932332036
 11
112.38186867451296
 21
27.021328380854158
  0
LINE
  8
_0-7_5-4図補助2
  6
CONTINUOUS
 62
    7
 10
106.44969201630975
 20
21.743317720202839
 11
108.90285179577056
 21
24.196477499663587
  0
LINE
  8
_0-7_5-4図補助2
  6
CONTINUOUS
 62
    7
 10
110.46395367705786
 20
25.757579380950887
 11
111.72770267696126
 21
27.021328380854158
  0
LINE
  8
_0-7_5-4図補助2
  6
CONTINUOUS
 62
    7
 10
113.66049528698906
 20
28.954120990882217
 11
114.08718928752965
 21
29.380814991422568
  0
LINE
  8
_0-7_5-4図補助2
  6
CONTINUOUS
 62
    7
 10
105.79552601875815
 20
21.743317720202839
 11
108.24868579821856
 21
24.196477499663587
  0
LINE
  8
_0-7_5-4図補助2
  6
CONTINUOUS
 62
    7
 10
109.80978767950586
 20
25.757579380950887
 11
111.07353667940926
 21
27.021328380854158
  0
LINE
  8
_0-7_5-4図補助2
  6
CONTINUOUS
 62
    7
 10
111.89125673022586
 20
27.839048431670534
 11
112.22735932028365
 21
28.175151021728908
  0
LINE
  8
_0-7_5-4図補助2
  6
CONTINUOUS
 62
    7
 10
113.00632928943736
 20
28.954120990882217
 11
114.08718928752965
 21
30.034980988974411
  0
LINE
  8
_0-7_5-4図補助2
  6
CONTINUOUS
 62
    7
 10
105.14136002120576
 20
21.743317720202839
 11
107.59451980066656
 21
24.196477499663587
  0
LINE
  8
_0-7_5-4図補助2
  6
CONTINUOUS
 62
    7
 10
109.15562168195416
 20
25.757579380950887
 11
110.41937068185726
 21
27.021328380854158
  0
LINE
  8
_0-7_5-4図補助2
  6
CONTINUOUS
 62
    7
 10
111.23709073267386
 20
27.839048431670534
 11
113.83892657983796
 21
30.440884278834659
  0
LINE
  8
_0-7_5-4図補助2
  6
CONTINUOUS
 62
    7
 10
104.48719402365406
 20
21.743317720202839
 11
106.94035380311486
 21
24.196477499663587
  0
LINE
  8
_0-7_5-4図補助2
  6
CONTINUOUS
 62
    7
 10
108.50145568440176
 20
25.757579380950887
 11
109.76520468430556
 21
27.021328380854158
  0
LINE
  8
_0-7_5-4図補助2
  6
CONTINUOUS
 62
    7
 10
110.58292473512175
 20
27.839048431670534
 11
113.18476058228596
 21
30.440884278834659
  0
LINE
  8
_0-7_5-4図補助2
  6
CONTINUOUS
 62
    7
 10
103.83542593416966
 20
21.745715628270403
 11
106.45630548725876
 21
24.366595181359543
  0
LINE
  8
_0-7_5-4図補助2
  6
CONTINUOUS
 62
    7
 10
107.84728968685016
 20
25.757579380950887
 11
109.11103868675326
 21
27.021328380854158
  0
LINE
  8
_0-7_5-4図補助2
  6
CONTINUOUS
 62
    7
 10
109.92875873757016
 20
27.839048431670534
 11
112.57658085716335
 21
30.486870551264104
  0
LINE
  8
_0-7_5-4図補助2
  6
CONTINUOUS
 62
    7
 10
103.59774710748205
 20
22.16220279913469
 11
106.86207605273685
 21
25.42653174438928
  0
LINE
  8
_0-7_5-4図補助2
  6
CONTINUOUS
 62
    7
 10
107.19312368929816
 20
25.757579380950887
 11
108.45687268920156
 21
27.021328380854158
  0
LINE
  8
_0-7_5-4図補助2
  6
CONTINUOUS
 62
    7
 10
109.27459274001805
 20
27.839048431670534
 11
110.38966529922925
 21
28.954120990882217
  0
LINE
  8
_0-7_5-4図補助2
  6
CONTINUOUS
 62
    7
 10
110.86133689103725
 20
29.425792582690207
 11
112.08302018015236
 21
30.647475871805085
  0
LINE
  8
_0-7_5-4図補助2
  6
CONTINUOUS
 62
    7
 10
103.67058480723246
 20
22.889206496436913
 11
107.80270669164956
 21
27.021328380854158
  0
LINE
  8
_0-7_5-4図補助2
  6
CONTINUOUS
 62
    7
 10
108.62042674246605
 20
27.839048431670534
 11
109.73549930167766
 21
28.954120990882217
  0
LINE
  8
_0-7_5-4図補助2
  6
CONTINUOUS
 62
    7
 10
110.52615532526916
 20
29.744777014473726
 11
111.59835988287506
 21
30.816981572079811
  0
LINE
  8
_0-7_5-4図補助2
  6
CONTINUOUS
 62
    7
 10
104.39128039756896
 20
24.26406808432543
 11
107.14854069409756
 21
27.021328380854158
  0
LINE
  8
_0-7_5-4図補助2
  6
CONTINUOUS
 62
    7
 10
107.96626074491445
 20
27.839048431670534
 11
109.08133330412555
 21
28.954120990882217
  0
LINE
  8
_0-7_5-4図補助2
  6
CONTINUOUS
 62
    7
 10
110.19097375950025
 20
30.063761446257075
 11
111.13871198376195
 21
31.011499670518418
  0
LINE
  8
_0-7_5-4図補助2
  6
CONTINUOUS
 62
    7
 10
105.02938929840946
 20
25.556342982718121
 11
106.49437469654586
 21
27.021328380854158
  0
LINE
  8
_0-7_5-4図補助2
  6
CONTINUOUS
 62
    7
 10
107.31209474736245
 20
27.839048431670534
 11
108.42716730657355
 21
28.954120990882217
  0
LINE
  8
_0-7_5-4図補助2
  6
CONTINUOUS
 62
    7
 10
109.85579219373176
 20
30.382745878040424
 11
110.82205914749186
 21
31.349012831800309
  0
LINE
  8
_0-7_5-4図補助2
  6
CONTINUOUS
 62
    7
 10
104.57645969909035
 20
25.757579380950887
 11
105.84020869899355
 21
27.021328380854158
  0
LINE
  8
_0-7_5-4図補助2
  6
CONTINUOUS
 62
    7
 10
106.65792874981035
 20
27.839048431670534
 11
107.77300130902185
 21
28.954120990882217
  0
LINE
  8
_0-7_5-4図補助2
  6
CONTINUOUS
 62
    7
 10
109.52061062796325
 20
30.701730309823944
 11
110.50540631122176
 21
31.686525993081858
  0
LINE
  8
_0-7_5-4図補助2
  6
CONTINUOUS
 62
    7
 10
103.92229370153835
 20
25.757579380950887
 11
105.18604270144186
 21
27.021328380854158
  0
LINE
  8
_0-7_5-4図補助2
  6
CONTINUOUS
 62
    7
 10
106.00376275225835
 20
27.839048431670534
 11
107.13174352099476
 21
28.967029200407097
  0
LINE
  8
_0-7_5-4図補助2
  6
CONTINUOUS
 62
    7
 10
109.05162792149795
 20
30.886913600910106
 11
110.18875347495126
 21
32.024039154363578
  0
LINE
  8
_0-7_5-4図補助2
  6
CONTINUOUS
 62
    7
 10
103.52394699058026
 20
26.013398667544806
 11
104.53187670388985
 21
27.021328380854158
  0
LINE
  8
_0-7_5-4図補助2
  6
CONTINUOUS
 62
    7
 10
105.38096799721765
 20
27.870419674181875
 11
106.70222731743776
 21
29.19167899440194
  0
LINE
  8
_0-7_5-4図補助2
  6
CONTINUOUS
 62
    7
 10
107.36597537843146
 20
29.855427055396007
 11
109.66121092384935
 21
32.150662600813547
  0
LINE
  8
_0-7_5-4図補助2
  6
CONTINUOUS
 62
    7
 10
103.52335348748825
 20
26.666971162004387
 11
103.87771070633775
 21
27.021328380854158
  0
LINE
  8
_0-7_5-4図補助2
  6
CONTINUOUS
 62
    7
 10
105.23439745387556
 20
28.378015128391752
 11
109.00704492629735
 21
32.150662600813547
  0
LINE
  8
_0-7_5-4図補助2
  6
CONTINUOUS
 62
    7
 10
105.11118753941805
 20
28.908971211486545
 11
108.35287892874535
 21
32.150662600813547
  0
LINE
  8
_0-7_5-4図補助2
  6
CONTINUOUS
 62
    7
 10
104.50217132126215
 20
28.954120990882217
 11
107.45022837499816
 21
31.902178044618353
  0
LINE
  8
_0-7_5-4図補助2
  6
CONTINUOUS
 62
    7
 10
103.84800532371015
 20
28.954120990882217
 11
105.38162382914045
 21
30.487739496312287
  0
LINE
  8
_0-7_5-4図補助2
  6
CONTINUOUS
 62
    7
 10
103.20368196287755
 20
28.963963627601487
 11
104.68060261411046
 21
30.440884278834659
  0
LINE
  8
_0-7_5-4図補助2
  6
CONTINUOUS
 62
    7
 10
103.00260124535505
 20
29.417048907630914
 11
104.02643661655875
 21
30.440884278834659
  0
LINE
  8
_0-7_5-4図補助2
  6
CONTINUOUS
 62
    7
 10
103.00260124535505
 20
30.071214905182586
 11
103.37227061900646
 21
30.440884278834659
  0
LINE
  8
_0-7_5-4図補助2
  6
CONTINUOUS
 62
    7
 10
125.70298121412675
 20
21.37162699146208
 11
126.65964167523985
 21
22.328287452574926
  0
LINE
  8
_0-7_5-4図補助2
  6
CONTINUOUS
 62
    7
 10
125.04881521657465
 20
21.37162699146208
 11
126.65964167523985
 21
22.98245345012694
  0
LINE
  8
_0-7_5-4図補助2
  6
CONTINUOUS
 62
    7
 10
124.39464921902265
 20
21.37162699146208
 11
126.65964167523985
 21
23.636619447678783
  0
LINE
  8
_0-7_5-4図補助2
  6
CONTINUOUS
 62
    7
 10
123.74048322147095
 20
21.37162699146208
 11
126.65964167523985
 21
24.290785445230796
  0
LINE
  8
_0-7_5-4図補助2
  6
CONTINUOUS
 62
    7
 10
123.08631722391895
 20
21.37162699146208
 11
126.05984417281246
 21
24.345153940355686
  0
LINE
  8
_0-7_5-4図補助2
  6
CONTINUOUS
 62
    7
 10
122.43215122636695
 20
21.37162699146208
 11
125.40567817526076
 21
24.345153940355686
  0
LINE
  8
_0-7_5-4図補助2
  6
CONTINUOUS
 62
    7
 10
121.77798522881535
 20
21.37162699146208
 11
124.75151217770876
 21
24.345153940355686
  0
LINE
  8
_0-7_5-4図補助2
  6
CONTINUOUS
 62
    7
 10
121.12381923126296
 20
21.37162699146208
 11
124.09734618015676
 21
24.345153940355686
  0
LINE
  8
_0-7_5-4図補助2
  6
CONTINUOUS
 62
    7
 10
120.46965323371126
 20
21.37162699146208
 11
123.68570937693846
 21
24.587683134689115
  0
LINE
  8
_0-7_5-4図補助2
  6
CONTINUOUS
 62
    7
 10
119.87730607491756
 20
21.433445830220222
 11
123.68391360373396
 21
25.240053359036409
  0
LINE
  8
_0-7_5-4図補助2
  6
CONTINUOUS
 62
    7
 10
119.49882454697286
 20
21.709130299827365
 11
123.68391360373396
 21
25.894219356588422
  0
LINE
  8
_0-7_5-4図補助2
  6
CONTINUOUS
 62
    7
 10
119.30232474369136
 20
22.166796494097838
 11
121.48068218994936
 21
24.345153940355686
  0
LINE
  8
_0-7_5-4図補助2
  6
CONTINUOUS
 62
    7
 10
122.27044225862726
 20
25.134914009033736
 11
123.68391360373396
 21
26.548385354140265
  0
LINE
  8
_0-7_5-4図補助2
  6
CONTINUOUS
 62
    7
 10
124.97457668126405
 20
27.839048431670534
 11
125.46935057055016
 21
28.333822320956784
  0
LINE
  8
_0-7_5-4図補助2
  6
CONTINUOUS
 62
    7
 10
117.55563636211976
 20
21.074274110078221
 11
117.88124346157966
 21
21.399881209538165
  0
LINE
  8
_0-7_5-4図補助2
  6
CONTINUOUS
 62
    7
 10
119.29471418712126
 20
22.813351935079794
 11
120.82651619239705
 21
24.345153940355686
  0
LINE
  8
_0-7_5-4図補助2
  6
CONTINUOUS
 62
    7
 10
122.27044225862726
 20
25.789080006585749
 11
123.68391360373396
 21
27.202551351692279
  0
LINE
  8
_0-7_5-4図補助2
  6
CONTINUOUS
 62
    7
 10
124.32041068371235
 20
27.839048431670534
 11
125.46935057055016
 21
28.987988318508627
  0
LINE
  8
_0-7_5-4図補助2
  6
CONTINUOUS
 62
    7
 10
116.90752498816556
 20
21.080328733676055
 11
117.88124346157966
 21
22.054047207090179
  0
LINE
  8
_0-7_5-4図補助2
  6
CONTINUOUS
 62
    7
 10
119.29471418712126
 20
23.467517932631807
 11
120.17235019484535
 21
24.345153940355686
  0
LINE
  8
_0-7_5-4図補助2
  6
CONTINUOUS
 62
    7
 10
122.27044225862726
 20
26.443246004137762
 11
125.22567942145756
 21
29.398483166967679
  0
LINE
  8
_0-7_5-4図補助2
  6
CONTINUOUS
 62
    7
 10
116.69095173732546
 20
21.517921480387685
 11
117.88124346157966
 21
22.708213204642192
  0
LINE
  8
_0-7_5-4図補助2
  6
CONTINUOUS
 62
    7
 10
119.29471418712126
 20
24.12168393018348
 11
119.51818419729295
 21
24.345153940355686
  0
LINE
  8
_0-7_5-4図補助2
  6
CONTINUOUS
 62
    7
 10
122.27044225862726
 20
27.097412001689605
 11
124.57318019690635
 21
29.400149939968941
  0
LINE
  8
_0-7_5-4図補助2
  6
CONTINUOUS
 62
    7
 10
116.69095173732546
 20
22.172087477939698
 11
117.88124346157966
 21
23.362379202194205
  0
LINE
  8
_0-7_5-4図補助2
  6
CONTINUOUS
 62
    7
 10
122.22896819298705
 20
27.710103933601289
 11
123.92143334704825
 21
29.40256908766284
  0
LINE
  8
_0-7_5-4図補助2
  6
CONTINUOUS
 62
    7
 10
116.69095173732546
 20
22.826253475491711
 11
117.88124346157966
 21
24.016545199746048
  0
LINE
  8
_0-7_5-4図補助2
  6
CONTINUOUS
 62
    7
 10
118.87853962656746
 20
25.01384136473385
 11
119.83697081338406
 21
25.972272551550276
  0
LINE
  8
_0-7_5-4図補助2
  6
CONTINUOUS
 62
    7
 10
121.70374669350436
 20
27.839048431670534
 11
123.68391360373396
 21
29.819215341899991
  0
LINE
  8
_0-7_5-4図補助2
  6
CONTINUOUS
 62
    7
 10
116.36430172044916
 20
23.153769456167396
 11
117.88124346157966
 21
24.670711197297891
  0
LINE
  8
_0-7_5-4図補助2
  6
CONTINUOUS
 62
    7
 10
118.52160180785415
 20
25.311069543572586
 11
119.41143963080276
 21
26.200907366521022
  0
LINE
  8
_0-7_5-4図補助2
  6
CONTINUOUS
 62
    7
 10
121.04958069595266
 20
27.839048431670534
 11
123.68391360373396
 21
30.473381339451834
  0
LINE
  8
_0-7_5-4図補助2
  6
CONTINUOUS
 62
    7
 10
115.33054047235136
 20
22.774174205621279
 11
118.98273865901035
 21
26.426372392280626
  0
LINE
  8
_0-7_5-4図補助2
  6
CONTINUOUS
 62
    7
 10
120.44829790681776
 20
27.891931640088018
 11
121.95651620669865
 21
29.400149939968941
  0
LINE
  8
_0-7_5-4図補助2
  6
CONTINUOUS
 62
    7
 10
122.27044225862726
 20
29.714075991897488
 11
123.68391360373396
 21
31.127547337003847
  0
LINE
  8
_0-7_5-4図補助2
  6
CONTINUOUS
 62
    7
 10
114.72675062955045
 20
22.82455036037274
 11
118.77366438791836
 21
26.871464118740079
  0
LINE
  8
_0-7_5-4図補助2
  6
CONTINUOUS
 62
    7
 10
120.33621929095246
 20
28.434019021774333
 11
121.30235020914665
 21
29.400149939968941
  0
LINE
  8
_0-7_5-4図補助2
  6
CONTINUOUS
 62
    7
 10
122.27044225862726
 20
30.368241989449331
 11
123.68391360373396
 21
31.78171333455569
  0
LINE
  8
_0-7_5-4図補助2
  6
CONTINUOUS
 62
    7
 10
114.68233514965675
 20
23.434300878030882
 11
118.94580652514456
 21
27.697772253518536
  0
LINE
  8
_0-7_5-4図補助2
  6
CONTINUOUS
 62
    7
 10
120.33621929095246
 20
29.088185019326346
 11
120.64818421159495
 21
29.400149939968941
  0
LINE
  8
_0-7_5-4図補助2
  6
CONTINUOUS
 62
    7
 10
122.27044225862726
 20
31.022407987001515
 11
123.46704372996845
 21
32.219009458342185
  0
LINE
  8
_0-7_5-4図補助2
  6
CONTINUOUS
 62
    7
 10
114.68233514965675
 20
24.088466875582725
 11
116.55257123344826
 21
25.958702959373881
  0
LINE
  8
_0-7_5-4図補助2
  6
CONTINUOUS
 62
    7
 10
117.83156990838896
 20
27.237701634314902
 11
119.01855153124225
 21
28.424683257168539
  0
LINE
  8
_0-7_5-4図補助2
  6
CONTINUOUS
 62
    7
 10
122.27044225862726
 20
31.676573984553187
 11
122.81886909523375
 21
32.225000821159512
  0
LINE
  8
_0-7_5-4図補助2
  6
CONTINUOUS
 62
    7
 10
114.68233514965675
 20
24.742632873134568
 11
115.65595525184925
 21
25.71625297532691
  0
LINE
  8
_0-7_5-4図補助2
  6
CONTINUOUS
 62
    7
 10
117.96941274011165
 20
28.029710463589396
 11
119.07153456626875
 21
29.131832289746882
  0
LINE
  8
_0-7_5-4図補助2
  6
CONTINUOUS
 62
    7
 10
118.02871530913185
 20
28.743179030161485
 11
119.07153456626875
 21
29.785998287298725
  0
LINE
  8
_0-7_5-4図補助2
  6
CONTINUOUS
 62
    7
 10
117.51115305195465
 20
28.879782770536593
 11
118.95098935860976
 21
30.319619077191732
  0
LINE
  8
_0-7_5-4図補助2
  6
CONTINUOUS
 62
    7
 10
116.85698705440255
 20
28.879782770536252
 11
118.34375071534406
 21
30.366546431477587
  0
LINE
  8
_0-7_5-4図補助2
  6
CONTINUOUS
 62
    7
 10
116.20282105685095
 20
28.879782770536252
 11
117.95574415541665
 21
30.632705869102125
  0
LINE
  8
_0-7_5-4図補助2
  6
CONTINUOUS
 62
    7
 10
115.54865505929855
 20
28.879782770536252
 11
117.95563646200885
 21
31.286764173246496
  0
LINE
  8
_0-7_5-4図補助2
  6
CONTINUOUS
 62
    7
 10
115.13122022600426
 20
29.116513934793915
 11
116.38125272268806
 21
30.366546431477587
  0
LINE
  8
_0-7_5-4図補助2
  6
CONTINUOUS
 62
    7
 10
116.76534473775466
 20
30.750638446544173
 11
117.94944265688186
 21
31.934736365671569
  0
LINE
  8
_0-7_5-4図補助2
  6
CONTINUOUS
 62
    7
 10
115.12869439136085
 20
29.768154097702364
 11
115.72708672513606
 21
30.366546431477587
  0
LINE
  8
_0-7_5-4図補助2
  6
CONTINUOUS
 62
    7
 10
116.76534473775466
 20
31.404804444096015
 11
117.51120289447216
 21
32.150662600813547
  0
LINE
  8
_0-7_5-4図補助2
  6
CONTINUOUS
 62
    7
 10
15.66351168954651
 20
25.907129983091494
 11
15.675271219591366
 21
25.398430193734299
  0
LINE
  8
_0-7_5-4図補助2
  6
CONTINUOUS
 62
    7
 10
15.675271219591366
 20
25.398430193734299
 11
15.784643376358247
 21
24.75759417134995
  0
LINE
  8
_0-7_5-4図補助2
  6
CONTINUOUS
 62
    7
 10
15.784643376358247
 20
24.75759417134995
 11
16.113894604634709
 21
23.678598665504836
  0
LINE
  8
_0-7_5-4図補助2
  6
CONTINUOUS
 62
    7
 10
16.113894604634709
 20
23.678598665504836
 11
16.643371827943213
 21
22.743743418601724
  0
LINE
  8
_0-7_5-4図補助2
  6
CONTINUOUS
 62
    7
 10
16.643371827943213
 20
22.743743418601724
 11
17.580726187263792
 21
21.681821259408338
  0
LINE
  8
_0-7_5-4図補助2
  6
CONTINUOUS
 62
    7
 10
17.580726187263792
 20
21.681821259408338
 11
18.497190229741079
 21
21.006165085570018
  0
LINE
  8
_0-7_5-4図補助2
  6
CONTINUOUS
 62
    7
 10
18.497190229741079
 20
21.006165085570018
 11
19.796737196133961
 21
20.410180575418309
  0
LINE
  8
_0-7_5-4図補助2
  6
CONTINUOUS
 62
    7
 10
19.796737196133961
 20
20.410180575418309
 11
20.914221190054775
 21
20.148648051800564
  0
LINE
  8
_0-7_5-4図補助2
  6
CONTINUOUS
 62
    7
 10
20.914221190054775
 20
20.148648051800564
 11
22.350156767561373
 21
20.101370737532733
  0
LINE
  8
_0-7_5-4図補助2
  6
CONTINUOUS
 62
    7
 10
22.350156767561373
 20
20.101370737532733
 11
23.483344996700623
 21
20.288470649276661
  0
LINE
  8
_0-7_5-4図補助2
  6
CONTINUOUS
 62
    7
 10
23.483344996700623
 20
20.288470649276661
 11
24.821926074119631
 21
20.79601382441561
  0
LINE
  8
_0-7_5-4図補助2
  6
CONTINUOUS
 62
    7
 10
24.821926074119631
 20
20.79601382441561
 11
25.784665749491467
 21
21.407309039950434
  0
LINE
  8
_0-7_5-4図補助2
  6
CONTINUOUS
 62
    7
 10
25.784665749491467
 20
21.407309039950434
 11
26.797550741677753
 21
22.400601184236251
  0
LINE
  8
_0-7_5-4図補助2
  6
CONTINUOUS
 62
    7
 10
26.797550741677753
 20
22.400601184236251
 11
27.403897494680166
 21
23.316792108287785
  0
LINE
  8
_0-7_5-4図補助2
  6
CONTINUOUS
 62
    7
 10
27.403897494680166
 20
23.316792108287785
 11
27.848552957543404
 21
24.481631677401509
  0
LINE
  8
_0-7_5-4図補助2
  6
CONTINUOUS
 62
    7
 10
27.848552957543404
 20
24.481631677401509
 11
28.013045077136383
 21
25.257085168283965
  0
LINE
  8
_0-7_5-4図補助2
  6
CONTINUOUS
 62
    7
 10
28.013045077136383
 20
25.257085168283965
 11
28.032393983534632
 21
25.907129983091494
  0
TEXT
  8
_0-2_1-2図名
 62
    7
 10
132.99971936635316
 20
33.296692793313781
 40
3
 41
1
 50
0
  1
本社
  0
TEXT
  8
_0-2_1-2図名
 62
    7
 10
150.49971936635316
 20
22.660997501855348
 40
3
 41
1
 50
0
  1
〒340-0002埼玉県草加市青柳6-16-1
  0
TEXT
  8
_0-2_1-2図名
 62
    7
 10
71.394691506546451
 20
272.05343005707289
 40
7
 41
1
 50
0
  1
O - 10B
  0
TEXT
  8
_0-3_2-1寸法
 62
    7
 10
304.87662291965256
 20
141.11151859242793
 40
3
 41
1
 50
0
  1
O-10B
  0
TEXT
  8
_0-3_2-1寸法
 62
    7
 10
292.20657215823115
 20
114.11151859242783
 40
3
 41
1
 50
0
  1
O-10B 内ジョイント
  0
TEXT
  8
_0-3_2-1寸法
 62
    7
 10
105.37662291965256
 20
153.50013056468734
 40
3
 41
1
 50
0
  1
O-10B
  0
TEXT
  8
_0-8_1-4文字
 62
    7
 10
378.31190252587606
 20
272.50013056468777
 40
6
 41
1
 50
0
  1
A3 S=1/1
  0
TEXT
  8
_0-8_1-4文字
 62
    7
 10
126.49971936635296
 20
277.50013056468777
 40
6
 41
1
 50
0
  1
アングル本体:L=2000 t=2.0
  0
TEXT
  8
_0-8_1-4文字
 62
    7
 10
126.49971936635306
 20
268.00013056468788
 40
5
 41
1
 50
0
  1
カラー:シルバー
  0
TEXT
  8
_0-8_1-4文字
 62
    7
 10
231.49971978475935
 20
277.50013056468777
 40
6
 41
1
 50
0
  1
コーナー 300ｘ300
  0
LINE
  8
_0-1_1-1図枠
  6
CONTINUOUS
 62
    3
 10
9.9997193663531334
 20
286.00013056468754
 11
9.9997193663531334
 21
11.000130564687396
  0
LINE
  8
_0-4_Defpoints
  6
CONTINUOUS
 62
    7
 10
9.7997193663531448
 20
286.20013056468736
 11
9.7997193663531448
 21
10.800130564687521
  0
LINE
  8
_0-1_1-1図枠
  6
CONTINUOUS
 62
    3
 10
10.499719366353133
 20
285.50013056468742
 11
10.499719366353133
 21
11.500130564687396
  0
LINE
  8
_0-1_1-1図枠
  6
CONTINUOUS
 62
    3
 10
409.99971936635308
 20
286.00013056468754
 11
409.99971936635308
 21
11.000130564687396
  0
LINE
  8
_0-4_Defpoints
  6
CONTINUOUS
 62
    7
 10
410.19971936635307
 20
286.20013056468736
 11
410.19971936635307
 21
10.800130564687407
  0
LINE
  8
_0-1_1-1図枠
  6
CONTINUOUS
 62
    3
 10
409.49971936635308
 20
285.50013056468754
 11
409.49971936635308
 21
11.500130564687169
  0
LINE
  8
_0-1_1-1図枠
  6
CONTINUOUS
 62
    3
 10
9.9997193663531334
 20
11.000130564687396
 11
409.99971936635308
 21
11.000130564687396
  0
LINE
  8
_0-4_Defpoints
  6
CONTINUOUS
 62
    7
 10
9.7997193663531448
 20
10.800130564687407
 11
410.19971936635307
 21
10.800130564687407
  0
LINE
  8
_0-1_1-1図枠
  6
CONTINUOUS
 62
    3
 10
10.499719366353133
 20
11.500130564687396
 11
409.49971936635308
 21
11.500130564687169
  0
LINE
  8
_0-1_1-1図枠
  6
CONTINUOUS
 62
    3
 10
10.499719366353133
 20
285.50013056468742
 11
409.49971936635308
 21
285.50013056468765
  0
LINE
  8
_0-1_1-1図枠
  6
CONTINUOUS
 62
    3
 10
9.9997193663531334
 20
286.00013056468742
 11
409.99971936635296
 21
286.00013056468742
  0
LINE
  8
_0-4_Defpoints
  6
CONTINUOUS
 62
    7
 10
9.7997193663531448
 20
286.20013056468736
 11
410.19971936635307
 21
286.20013056468736
  0
LINE
  8
_0-1_1-1図枠
  6
CONTINUOUS
 62
    3
 10
10.499719366353133
 20
41.50013056468741
 11
409.49971936635308
 21
41.500130564687169
  0
LINE
  8
_0-1_1-1図枠
  6
CONTINUOUS
 62
    3
 10
130.49971936635305
 20
41.500130564687339
 11
130.49971936635305
 21
11.500130564687396
  0
LINE
  8
_0-1_1-1図枠
  6
CONTINUOUS
 62
    3
 10
249.49971936635316
 20
41.500130564687268
 11
249.49971936635305
 21
11.500130564687169
  0
LINE
  8
_0-1_1-1図枠
  6
CONTINUOUS
 62
    3
 10
10.499719366353133
 20
265.50013056468731
 11
409.49971936635308
 21
265.50013056468765
  0
LINE
  8
_0-1_1-1図枠
  6
CONTINUOUS
 62
    3
 10
50.499719366353133
 20
285.50013056468742
 11
50.499719366353162
 21
265.50013056468731
  0
LINE
  8
_0-1_1-1図枠
  6
CONTINUOUS
 62
    3
 10
125.49971936635316
 20
285.50013056468742
 11
125.49971936635316
 21
265.50013056468731
  0
LINE
  8
_0-4_Defpoints
  6
CONTINUOUS
 62
    7
 10
-0.0002806336470371
 20
0.0001305646873959
 11
-0.0002806336470371
 21
297.00013056468742
  0
LINE
  8
_0-4_Defpoints
  6
CONTINUOUS
 62
    7
 10
-0.0002806336470371
 20
297.00013056468742
 11
419.99971936635285
 21
297.00013056468742
  0
LINE
  8
_0-4_Defpoints
  6
CONTINUOUS
 62
    7
 10
419.99971936635285
 20
297.00013056468742
 11
419.99971936635285
 21
0.0001305646873959
  0
LINE
  8
_0-4_Defpoints
  6
CONTINUOUS
 62
    7
 10
419.99971936635285
 20
0.0001305646873959
 11
-0.0002806336470371
 21
0.0001305646873959
  0
LINE
  8
_0-6_6-1ハッチング
  6
CONTINUOUS
 62
    6
 10
60.285386588435358
 20
232.80032223719044
 11
60.738581614582642
 21
233.25351726333764
  0
LINE
  8
_0-6_6-1ハッチング
  6
CONTINUOUS
 62
    6
 10
60.350906229312784
 20
231.96781626596092
 11
61.636607226689591
 21
233.25351726333764
  0
LINE
  8
_0-6_6-1ハッチング
  6
CONTINUOUS
 62
    6
 10
60.416425870190267
 20
231.13531029473143
 11
62.53463283879654
 21
233.25351726333773
  0
LINE
  8
_0-6_6-1ハッチング
  6
CONTINUOUS
 62
    6
 10
60.481945511067636
 20
230.30280432350193
 11
63.432658450903375
 21
233.25351726333764
  0
LINE
  8
_0-6_6-1ハッチング
  6
CONTINUOUS
 62
    6
 10
60.547465151945119
 20
229.47029835227252
 11
64.330684063010324
 21
233.25351726333764
  0
LINE
  8
_0-6_6-1ハッチング
  6
CONTINUOUS
 62
    6
 10
60.612984792822544
 20
228.63779238104303
 11
62.472798663768572
 21
230.49760625198903
  0
LINE
  8
_0-6_6-1ハッチング
  6
CONTINUOUS
 62
    6
 10
63.228709675117329
 20
231.25351726333784
 11
65.228709675117159
 21
233.25351726333764
  0
LINE
  8
_0-6_6-1ハッチング
  6
CONTINUOUS
 62
    6
 10
60.67850443369997
 20
227.80528640981353
 11
62.538318304646054
 21
229.66510028075962
  0
LINE
  8
_0-6_6-1ハッチング
  6
CONTINUOUS
 62
    6
 10
64.126735287224278
 20
231.25351726333784
 11
66.126735287224108
 21
233.25351726333764
  0
LINE
  8
_0-6_6-1ハッチング
  6
CONTINUOUS
 62
    6
 10
60.744024074577453
 20
226.97278043858404
 11
62.603837945523424
 21
228.83259430953004
  0
LINE
  8
_0-6_6-1ハッチング
  6
CONTINUOUS
 62
    6
 10
65.024760899331284
 20
231.25351726333793
 11
67.024760899331056
 21
233.25351726333764
  0
LINE
  8
_0-6_6-1ハッチング
  6
CONTINUOUS
 62
    6
 10
60.809543715454879
 20
226.14027446735454
 11
62.669357586400963
 21
228.00008833830063
  0
LINE
  8
_0-6_6-1ハッチング
  6
CONTINUOUS
 62
    6
 10
65.922786511438119
 20
231.25351726333784
 11
67.922786511437948
 21
233.25351726333764
  0
LINE
  8
_0-6_6-1ハッチング
  6
CONTINUOUS
 62
    6
 10
60.875063356332305
 20
225.30776849612514
 11
62.734877227278332
 21
227.16758236707113
  0
LINE
  8
_0-6_6-1ハッチング
  6
CONTINUOUS
 62
    6
 10
66.820812123544954
 20
231.25351726333773
 11
68.820812123544897
 21
233.25351726333773
  0
LINE
  8
_0-6_6-1ハッチング
  6
CONTINUOUS
 62
    6
 10
60.940582997209788
 20
224.47526252489564
 11
62.800396868155815
 21
226.33507639584164
  0
LINE
  8
_0-6_6-1ハッチング
  6
CONTINUOUS
 62
    6
 10
67.71883773565196
 20
231.25351726333784
 11
69.718837735651846
 21
233.25351726333773
  0
LINE
  8
_0-6_6-1ハッチング
  6
CONTINUOUS
 62
    6
 10
61.006102638087214
 20
223.64275655366612
 11
62.865916509033298
 21
225.50257042461223
  0
LINE
  8
_0-6_6-1ハッチング
  6
CONTINUOUS
 62
    6
 10
68.616863347758908
 20
231.25351726333784
 11
70.616863347758738
 21
233.25351726333764
  0
LINE
  8
_0-6_6-1ハッチング
  6
CONTINUOUS
 62
    6
 10
61.071622278964639
 20
222.81025058243674
 11
62.931436149910667
 21
224.67006445338274
  0
LINE
  8
_0-6_6-1ハッチング
  6
CONTINUOUS
 62
    6
 10
69.5148889598658
 20
231.25351726333784
 11
71.51488895986563
 21
233.25351726333773
  0
LINE
  8
_0-6_6-1ハッチング
  6
CONTINUOUS
 62
    6
 10
61.137141919842065
 20
221.97774461120724
 11
62.996955790788149
 21
223.83755848215324
  0
LINE
  8
_0-6_6-1ハッチング
  6
CONTINUOUS
 62
    6
 10
70.412914571972692
 20
231.25351726333784
 11
72.412914571972635
 21
233.25351726333773
  0
LINE
  8
_0-6_6-1ハッチング
  6
CONTINUOUS
 62
    6
 10
61.202661560719548
 20
221.14523863997772
 11
63.062475431665689
 21
223.00505251092392
  0
LINE
  8
_0-6_6-1ハッチング
  6
CONTINUOUS
 62
    6
 10
71.310940184079698
 20
231.25351726333793
 11
73.31094018407947
 21
233.25351726333764
  0
LINE
  8
_0-6_6-1ハッチング
  6
CONTINUOUS
 62
    6
 10
61.268181201597031
 20
220.31273266874834
 11
63.127995072543058
 21
222.17254653969434
  0
LINE
  8
_0-6_6-1ハッチング
  6
CONTINUOUS
 62
    6
 10
72.208965796186646
 20
231.25351726333793
 11
74.208965796186419
 21
233.25351726333773
  0
LINE
  8
_0-6_6-1ハッチング
  6
CONTINUOUS
 62
    6
 10
61.3337008424744
 20
219.48022669751884
 11
63.193514713420484
 21
221.34004056846493
  0
LINE
  8
_0-6_6-1ハッチング
  6
CONTINUOUS
 62
    6
 10
73.106991408293425
 20
231.25351726333784
 11
75.106991408293368
 21
233.25351726333773
  0
LINE
  8
_0-6_6-1ハッチング
  6
CONTINUOUS
 62
    6
 10
61.399220483351883
 20
218.64772072628932
 11
63.259034354298024
 21
220.50753459723552
  0
LINE
  8
_0-6_6-1ハッチング
  6
CONTINUOUS
 62
    6
 10
74.00501702040043
 20
231.25351726333793
 11
76.00501702040026
 21
233.25351726333773
  0
LINE
  8
_0-6_6-1ハッチング
  6
CONTINUOUS
 62
    6
 10
61.464740124229365
 20
217.81521475505994
 11
63.324553995175449
 21
219.67502862600594
  0
LINE
  8
_0-6_6-1ハッチング
  6
CONTINUOUS
 62
    6
 10
74.903042632507322
 20
231.25351726333784
 11
76.903042632507209
 21
233.25351726333773
  0
LINE
  8
_0-6_6-1ハッチング
  6
CONTINUOUS
 62
    6
 10
61.530259765106734
 20
216.98270878383033
 11
63.390073636052875
 21
218.84252265477653
  0
LINE
  8
_0-6_6-1ハッチング
  6
CONTINUOUS
 62
    6
 10
75.801068244614214
 20
231.25351726333784
 11
77.8010682446141
 21
233.25351726333773
  0
LINE
  8
_0-6_6-1ハッチング
  6
CONTINUOUS
 62
    6
 10
61.595779405984217
 20
216.15020281260092
 11
63.455593276930301
 21
218.01001668354704
  0
LINE
  8
_0-6_6-1ハッチング
  6
CONTINUOUS
 62
    6
 10
76.699093856721163
 20
231.25351726333793
 11
78.699093856720992
 21
233.25351726333773
  0
LINE
  8
_0-6_6-1ハッチング
  6
CONTINUOUS
 62
    6
 10
61.661299046861757
 20
215.31769684137154
 11
63.521112917807784
 21
217.17751071231754
  0
LINE
  8
_0-6_6-1ハッチング
  6
CONTINUOUS
 62
    6
 10
77.597119468828055
 20
231.25351726333784
 11
79.597119468827941
 21
233.25351726333773
  0
LINE
  8
_0-6_6-1ハッチング
  6
CONTINUOUS
 62
    6
 10
61.726818687739126
 20
214.48519087014193
 11
63.586632558685267
 21
216.34500474108813
  0
LINE
  8
_0-6_6-1ハッチング
  6
CONTINUOUS
 62
    6
 10
78.495145080935004
 20
231.25351726333784
 11
80.495145080934833
 21
233.25351726333773
  0
LINE
  8
_0-6_6-1ハッチング
  6
CONTINUOUS
 62
    6
 10
61.792338328616609
 20
213.65268489891264
 11
63.652152199562636
 21
215.51249876985864
  0
LINE
  8
_0-6_6-1ハッチング
  6
CONTINUOUS
 62
    6
 10
79.393170693041839
 20
231.25351726333784
 11
81.393170693041725
 21
233.25351726333773
  0
LINE
  8
_0-6_6-1ハッチング
  6
CONTINUOUS
 62
    6
 10
61.857857969494091
 20
212.82017892768314
 11
63.717671840440119
 21
214.67999279862914
  0
LINE
  8
_0-6_6-1ハッチング
  6
CONTINUOUS
 62
    6
 10
80.291196305148787
 20
231.25351726333784
 11
82.291196305148674
 21
233.25351726333773
  0
LINE
  8
_0-6_6-1ハッチング
  6
CONTINUOUS
 62
    6
 10
61.923377610371517
 20
211.98767295645362
 11
63.783191481317544
 21
213.84748682739962
  0
LINE
  8
_0-6_6-1ハッチング
  6
CONTINUOUS
 62
    6
 10
81.189221917255736
 20
231.25351726333784
 11
83.189221917255566
 21
233.25351726333764
  0
LINE
  8
_0-6_6-1ハッチング
  6
CONTINUOUS
 62
    6
 10
61.988897251248829
 20
211.15516698522413
 11
63.84871112219497
 21
213.01498085617024
  0
LINE
  8
_0-6_6-1ハッチング
  6
CONTINUOUS
 62
    6
 10
82.087247529362571
 20
231.25351726333784
 11
84.087247529362472
 21
233.25351726333773
  0
LINE
  8
_0-6_6-1ハッチング
  6
CONTINUOUS
 62
    6
 10
62.054416892126312
 20
210.32266101399463
 11
63.914230763072453
 21
212.18247488494072
  0
LINE
  8
_0-6_6-1ハッチング
  6
CONTINUOUS
 62
    6
 10
82.98527314146952
 20
231.25351726333784
 11
84.985273141469349
 21
233.25351726333764
  0
LINE
  8
_0-6_6-1ハッチング
  6
CONTINUOUS
 62
    6
 10
62.119936533003852
 20
209.49015504276522
 11
63.979750403949879
 21
211.34996891371122
  0
LINE
  8
_0-6_6-1ハッチング
  6
CONTINUOUS
 62
    6
 10
83.883298753576412
 20
231.25351726333773
 11
85.883298753576298
 21
233.25351726333764
  0
LINE
  8
_0-6_6-1ハッチング
  6
CONTINUOUS
 62
    6
 10
62.185456173881335
 20
208.65764907153584
 11
64.045270044827362
 21
210.51746294248184
  0
LINE
  8
_0-6_6-1ハッチング
  6
CONTINUOUS
 62
    6
 10
84.781324365683361
 20
231.25351726333784
 11
86.78132436568319
 21
233.25351726333764
  0
LINE
  8
_0-6_6-1ハッチング
  6
CONTINUOUS
 62
    6
 10
62.250975814758704
 20
207.82514310030632
 11
64.110789685704731
 21
209.68495697125232
  0
LINE
  8
_0-6_6-1ハッチング
  6
CONTINUOUS
 62
    6
 10
85.679349977790253
 20
231.25351726333784
 11
87.679349977790082
 21
233.25351726333764
  0
LINE
  8
_0-6_6-1ハッチング
  6
CONTINUOUS
 62
    6
 10
62.316495455636186
 20
206.99263712907683
 11
64.176309326582214
 21
208.85245100002282
  0
LINE
  8
_0-6_6-1ハッチング
  6
CONTINUOUS
 62
    6
 10
86.577375589897144
 20
231.25351726333773
 11
88.577375589897031
 21
233.25351726333764
  0
LINE
  8
_0-6_6-1ハッチング
  6
CONTINUOUS
 62
    6
 10
62.382015096513555
 20
206.16013115784733
 11
64.241828967459639
 21
208.01994502879344
  0
LINE
  8
_0-6_6-1ハッチング
  6
CONTINUOUS
 62
    6
 10
87.475401202004036
 20
231.25351726333784
 11
89.475401202003866
 21
233.25351726333764
  0
LINE
  8
_0-6_6-1ハッチング
  6
CONTINUOUS
 62
    6
 10
62.447534737391038
 20
205.32762518661784
 11
64.307348608337065
 21
207.18743905756392
  0
LINE
  8
_0-6_6-1ハッチング
  6
CONTINUOUS
 62
    6
 10
88.373426814110928
 20
231.25351726333773
 11
90.373426814110871
 21
233.25351726333773
  0
LINE
  8
_0-6_6-1ハッチング
  6
CONTINUOUS
 62
    6
 10
62.513054378268521
 20
204.49511921538843
 11
64.372868249214548
 21
206.35493308633443
  0
LINE
  8
_0-6_6-1ハッチング
  6
CONTINUOUS
 62
    6
 10
89.27145242621792
 20
231.25351726333784
 11
91.27145242621782
 21
233.25351726333773
  0
LINE
  8
_0-6_6-1ハッチング
  6
CONTINUOUS
 62
    6
 10
62.578574019145947
 20
203.66261324415893
 11
64.438387890091974
 21
205.52242711510493
  0
LINE
  8
_0-6_6-1ハッチング
  6
CONTINUOUS
 62
    6
 10
89.937453050710872
 20
231.02149227572383
 11
92.169478038324712
 21
233.25351726333764
  0
LINE
  8
_0-6_6-1ハッチング
  6
CONTINUOUS
 62
    6
 10
62.644093660023486
 20
202.83010727292944
 11
64.503907530969457
 21
204.68992114387544
  0
LINE
  8
_0-6_6-1ハッチング
  6
CONTINUOUS
 62
    6
 10
91.067503650431703
 20
231.25351726333773
 11
93.067503650431661
 21
233.25351726333764
  0
LINE
  8
_0-6_6-1ハッチング
  6
CONTINUOUS
 62
    6
 10
62.709613300900912
 20
201.99760130170014
 11
64.569427171846883
 21
203.85741517264603
  0
LINE
  8
_0-6_6-1ハッチング
  6
CONTINUOUS
 62
    6
 10
91.965529262538595
 20
231.25351726333773
 11
93.965529262538553
 21
233.25351726333773
  0
LINE
  8
_0-6_6-1ハッチング
  6
CONTINUOUS
 62
    6
 10
62.775132941778338
 20
201.16509533047054
 11
64.634946812724309
 21
203.02490920141653
  0
LINE
  8
_0-6_6-1ハッチング
  6
CONTINUOUS
 62
    6
 10
92.863554874645502
 20
231.25351726333773
 11
94.863554874645445
 21
233.25351726333764
  0
LINE
  8
_0-6_6-1ハッチング
  6
CONTINUOUS
 62
    6
 10
62.840652582655764
 20
200.33258935924113
 11
64.700466453601791
 21
202.19240323018724
  0
LINE
  8
_0-6_6-1ハッチング
  6
CONTINUOUS
 62
    6
 10
93.761580486752393
 20
231.25351726333773
 11
95.761580486752351
 21
233.25351726333773
  0
LINE
  8
_0-6_6-1ハッチング
  6
CONTINUOUS
 62
    6
 10
62.906172223533247
 20
199.50008338801163
 11
64.765986094479217
 21
201.35989725895763
  0
LINE
  8
_0-6_6-1ハッチング
  6
CONTINUOUS
 62
    6
 10
94.659606098859399
 20
231.25351726333784
 11
96.659606098859342
 21
233.25351726333773
  0
LINE
  8
_0-6_6-1ハッチング
  6
CONTINUOUS
 62
    6
 10
62.971691864410673
 20
198.66757741678214
 11
64.831505735356643
 21
200.52739128772814
  0
LINE
  8
_0-6_6-1ハッチング
  6
CONTINUOUS
 62
    6
 10
95.112309528952039
 20
230.80819508132353
 11
97.557631710966234
 21
233.25351726333773
  0
LINE
  8
_0-6_6-1ハッチング
  6
CONTINUOUS
 62
    6
 10
63.037211505288155
 20
197.83507144555273
 11
64.897025376234183
 21
199.69488531649873
  0
LINE
  8
_0-6_6-1ハッチング
  6
CONTINUOUS
 62
    6
 10
96.455657323073083
 20
231.25351726333764
 11
98.455657323073183
 21
233.25351726333773
  0
LINE
  8
_0-6_6-1ハッチング
  6
CONTINUOUS
 62
    6
 10
63.102731146165524
 20
197.00256547432323
 11
64.962545017111609
 21
198.86237934526932
  0
LINE
  8
_0-6_6-1ハッチング
  6
CONTINUOUS
 62
    6
 10
97.353682935180032
 20
231.25351726333773
 11
99.353682935180061
 21
233.25351726333773
  0
LINE
  8
_0-6_6-1ハッチング
  6
CONTINUOUS
 62
    6
 10
63.168250787043007
 20
196.17005950309374
 11
65.028064657989034
 21
198.02987337403974
  0
LINE
  8
_0-6_6-1ハッチング
  6
CONTINUOUS
 62
    6
 10
98.251708547287151
 20
231.25351726333793
 11
100.25170854728695
 21
233.25351726333773
  0
LINE
  8
_0-6_6-1ハッチング
  6
CONTINUOUS
 62
    6
 10
63.23377042792049
 20
195.33755353186433
 11
65.093584298866517
 21
197.19736740281033
  0
LINE
  8
_0-6_6-1ハッチング
  6
CONTINUOUS
 62
    6
 10
99.149734159394043
 20
231.25351726333784
 11
101.14973415939386
 21
233.25351726333773
  0
LINE
  8
_0-6_6-1ハッチング
  6
CONTINUOUS
 62
    6
 10
63.299290068797859
 20
194.50504756063484
 11
65.159103939743943
 21
196.36486143158092
  0
LINE
  8
_0-6_6-1ハッチング
  6
CONTINUOUS
 62
    6
 10
99.883015536466871
 20
231.08877302830382
 11
102.04775977150075
 21
233.25351726333773
  0
LINE
  8
_0-6_6-1ハッチング
  6
CONTINUOUS
 62
    6
 10
63.364809709675342
 20
193.67254158940534
 11
65.224623580621483
 21
195.53235546035143
  0
LINE
  8
_0-6_6-1ハッチング
  6
CONTINUOUS
 62
    6
 10
100.94578538360766
 20
231.25351726333773
 11
102.94578538360766
 21
233.25351726333773
  0
LINE
  8
_0-6_6-1ハッチング
  6
CONTINUOUS
 62
    6
 10
63.430329350552768
 20
192.84003561817582
 11
65.290143221498852
 21
194.69984948912193
  0
LINE
  8
_0-6_6-1ハッチング
  6
CONTINUOUS
 62
    6
 10
101.84381099571456
 20
231.25351726333764
 11
103.84381099571466
 21
233.25351726333773
  0
LINE
  8
_0-6_6-1ハッチング
  6
CONTINUOUS
 62
    6
 10
63.49584899143025
 20
192.00752964694632
 11
65.355662862376278
 21
193.86734351789244
  0
LINE
  8
_0-6_6-1ハッチング
  6
CONTINUOUS
 62
    6
 10
102.74183660782165
 20
231.25351726333784
 11
104.74183660782155
 21
233.25351726333764
  0
LINE
  8
_0-6_6-1ハッチング
  6
CONTINUOUS
 62
    6
 10
63.561368632307676
 20
191.17502367571694
 11
65.42118250325376
 21
193.03483754666303
  0
LINE
  8
_0-6_6-1ハッチング
  6
CONTINUOUS
 62
    6
 10
103.63986221992856
 20
231.25351726333784
 11
105.63986221992846
 21
233.25351726333773
  0
LINE
  8
_0-6_6-1ハッチング
  6
CONTINUOUS
 62
    6
 10
63.626888273185102
 20
190.34251770448742
 11
65.486702144131243
 21
192.20233157543353
  0
LINE
  8
_0-6_6-1ハッチング
  6
CONTINUOUS
 62
    6
 10
104.53788783203565
 20
231.25351726333804
 11
106.53788783203525
 21
233.25351726333764
  0
LINE
  8
_0-6_6-1ハッチング
  6
CONTINUOUS
 62
    6
 10
63.692407914062585
 20
189.51001173325793
 11
65.552221785008726
 21
191.36982560420412
  0
LINE
  8
_0-6_6-1ハッチング
  6
CONTINUOUS
 62
    6
 10
105.05661413949215
 20
230.87421795868764
 11
107.43591344414226
 21
233.25351726333764
  0
LINE
  8
_0-6_6-1ハッチング
  6
CONTINUOUS
 62
    6
 10
63.757927554939954
 20
188.67750576202855
 11
65.617741425886095
 21
190.53731963297463
  0
LINE
  8
_0-6_6-1ハッチング
  6
CONTINUOUS
 62
    6
 10
106.33393905624905
 20
231.25351726333764
 11
108.33393905624915
 21
233.25351726333773
  0
LINE
  8
_0-6_6-1ハッチング
  6
CONTINUOUS
 62
    6
 10
63.823447195817437
 20
187.84499979079902
 11
65.683261066763578
 21
189.70481366174513
  0
LINE
  8
_0-6_6-1ハッチング
  6
CONTINUOUS
 62
    6
 10
107.23196466835606
 20
231.25351726333764
 11
109.23196466835606
 21
233.25351726333764
  0
LINE
  8
_0-6_6-1ハッチング
  6
CONTINUOUS
 62
    6
 10
63.888966836694919
 20
187.01249381956953
 11
65.748780707641004
 21
188.87230769051564
  0
LINE
  8
_0-6_6-1ハッチング
  6
CONTINUOUS
 62
    6
 10
108.12999028046306
 20
231.25351726333773
 11
110.12999028046296
 21
233.25351726333764
  0
LINE
  8
_0-6_6-1ハッチング
  6
CONTINUOUS
 62
    6
 10
63.954486477572345
 20
186.17998784834003
 11
65.814300348518486
 21
188.03980171928623
  0
LINE
  8
_0-6_6-1ハッチング
  6
CONTINUOUS
 62
    6
 10
109.02801589257025
 20
231.25351726333793
 11
111.02801589256985
 21
233.25351726333764
  0
LINE
  8
_0-6_6-1ハッチング
  6
CONTINUOUS
 62
    6
 10
64.020006118449828
 20
185.34748187711062
 11
65.879819989395912
 21
187.20729574805674
  0
LINE
  8
_0-6_6-1ハッチング
  6
CONTINUOUS
 62
    6
 10
109.82857802222286
 20
231.15605378088372
 11
111.92604150467686
 21
233.25351726333773
  0
LINE
  8
_0-6_6-1ハッチング
  6
CONTINUOUS
 62
    6
 10
64.085525759327197
 20
184.51497590588113
 11
65.945339630273338
 21
186.37478977682724
  0
LINE
  8
_0-6_6-1ハッチング
  6
CONTINUOUS
 62
    6
 10
110.82406711678365
 20
231.25351726333764
 11
112.82406711678365
 21
233.25351726333764
  0
LINE
  8
_0-6_6-1ハッチング
  6
CONTINUOUS
 62
    6
 10
110.35249370729305
 20
230.78194385384703
 11
110.43458804065266
 21
230.86403818720663
  0
LINE
  8
_0-6_6-1ハッチング
  6
CONTINUOUS
 62
    6
 10
64.15104540020468
 20
183.68246993465164
 11
66.010859271150821
 21
185.54228380559783
  0
LINE
  8
_0-6_6-1ハッチング
  6
CONTINUOUS
 62
    6
 10
111.72209272889056
 20
231.25351726333764
 11
113.72209272889076
 21
233.25351726333773
  0
LINE
  8
_0-6_6-1ハッチング
  6
CONTINUOUS
 62
    6
 10
64.216565041082163
 20
182.84996396342234
 11
66.07637891202819
 21
184.70977783436834
  0
LINE
  8
_0-6_6-1ハッチング
  6
CONTINUOUS
 62
    6
 10
112.62011834099766
 20
231.25351726333773
 11
114.62011834099755
 21
233.25351726333773
  0
LINE
  8
_0-6_6-1ハッチング
  6
CONTINUOUS
 62
    6
 10
64.282084681959532
 20
182.01745799219273
 11
66.141898552905673
 21
183.87727186313884
  0
LINE
  8
_0-6_6-1ハッチング
  6
CONTINUOUS
 62
    6
 10
113.51814395310456
 20
231.25351726333784
 11
115.51814395310446
 21
233.25351726333773
  0
LINE
  8
_0-6_6-1ハッチング
  6
CONTINUOUS
 62
    6
 10
64.347604322837014
 20
181.18495202096324
 11
66.207418193783155
 21
183.04476589190944
  0
LINE
  8
_0-6_6-1ハッチング
  6
CONTINUOUS
 62
    6
 10
114.41616956521166
 20
231.25351726333793
 11
116.41616956521136
 21
233.25351726333764
  0
LINE
  8
_0-6_6-1ハッチング
  6
CONTINUOUS
 62
    6
 10
64.41312396371444
 20
180.35244604973374
 11
66.272937834660581
 21
182.21225992067983
  0
LINE
  8
_0-6_6-1ハッチング
  6
CONTINUOUS
 62
    6
 10
115.00217662524815
 20
230.94149871126754
 11
117.31419517731835
 21
233.25351726333764
  0
LINE
  8
_0-6_6-1ハッチング
  6
CONTINUOUS
 62
    6
 10
64.478643604591866
 20
179.51994007850433
 11
66.338457475538007
 21
181.37975394945042
  0
LINE
  8
_0-6_6-1ハッチング
  6
CONTINUOUS
 62
    6
 10
116.21222078942526
 20
231.25351726333773
 11
118.21222078942526
 21
233.25351726333773
  0
LINE
  8
_0-6_6-1ハッチング
  6
CONTINUOUS
 62
    6
 10
64.544163245469349
 20
178.68743410727484
 11
66.403977116415433
 21
180.54724797822092
  0
LINE
  8
_0-6_6-1ハッチング
  6
CONTINUOUS
 62
    6
 10
117.11024640153215
 20
231.25351726333773
 11
119.11024640153225
 21
233.25351726333773
  0
LINE
  8
_0-6_6-1ハッチング
  6
CONTINUOUS
 62
    6
 10
64.609682886346775
 20
177.85492813604534
 11
66.469496757292916
 21
179.71474200699143
  0
LINE
  8
_0-6_6-1ハッチング
  6
CONTINUOUS
 62
    6
 10
118.00827201363916
 20
231.25351726333773
 11
120.00827201363916
 21
233.25351726333773
  0
LINE
  8
_0-6_6-1ハッチング
  6
CONTINUOUS
 62
    6
 10
64.675202527224201
 20
177.02242216481594
 11
66.535016398170342
 21
178.88223603576202
  0
LINE
  8
_0-6_6-1ハッチング
  6
CONTINUOUS
 62
    6
 10
118.90629762574595
 20
231.25351726333773
 11
120.90629762574606
 21
233.25351726333773
  0
LINE
  8
_0-6_6-1ハッチング
  6
CONTINUOUS
 62
    6
 10
64.740722168101627
 20
176.18991619358644
 11
66.600536039047768
 21
178.04973006453253
  0
LINE
  8
_0-6_6-1ハッチング
  6
CONTINUOUS
 62
    6
 10
119.77414050797886
 20
231.22333453346363
 11
121.80432323785296
 21
233.25351726333773
  0
LINE
  8
_0-6_6-1ハッチング
  6
CONTINUOUS
 62
    6
 10
64.806241808979166
 20
175.35741022235703
 11
66.66605567992525
 21
177.21722409330303
  0
LINE
  8
_0-6_6-1ハッチング
  6
CONTINUOUS
 62
    6
 10
120.20697084688986
 20
230.75813926026774
 11
122.70234884995986
 21
233.25351726333773
  0
LINE
  8
_0-6_6-1ハッチング
  6
CONTINUOUS
 62
    6
 10
64.871761449856649
 20
174.52490425112754
 11
66.731575320802676
 21
176.38471812207354
  0
LINE
  8
_0-6_6-1ハッチング
  6
CONTINUOUS
 62
    6
 10
121.60037446206675
 20
231.25351726333764
 11
123.60037446206675
 21
233.25351726333764
  0
LINE
  8
_0-6_6-1ハッチング
  6
CONTINUOUS
 62
    6
 10
64.937281090734075
 20
173.69239827989813
 11
66.797094961680102
 21
175.55221215084413
  0
LINE
  8
_0-6_6-1ハッチング
  6
CONTINUOUS
 62
    6
 10
122.49840007417366
 20
231.25351726333773
 11
124.49840007417366
 21
233.25351726333773
  0
LINE
  8
_0-6_6-1ハッチング
  6
CONTINUOUS
 62
    6
 10
65.002800731611501
 20
172.85989230866863
 11
66.862614602557585
 21
174.71970617961463
  0
LINE
  8
_0-6_6-1ハッチング
  6
CONTINUOUS
 62
    6
 10
123.39642568628055
 20
231.25351726333764
 11
128.39642568628076
 21
236.25351726333784
  0
LINE
  8
_0-6_6-1ハッチング
  6
CONTINUOUS
 62
    6
 10
65.068320372488984
 20
172.02738633743922
 11
66.928134243434954
 21
173.88720020838522
  0
LINE
  8
_0-6_6-1ハッチング
  6
CONTINUOUS
 62
    6
 10
124.29445129838756
 20
231.25351726333793
 11
129.29445129838754
 21
236.25351726333784
  0
LINE
  8
_0-6_6-1ハッチング
  6
CONTINUOUS
 62
    6
 10
65.133840013366353
 20
171.19488036620965
 11
66.993653884312437
 21
173.05469423715573
  0
LINE
  8
_0-6_6-1ハッチング
  6
CONTINUOUS
 62
    6
 10
124.95345799433726
 20
231.01449834718053
 11
130.19247691049446
 21
236.25351726333784
  0
LINE
  8
_0-6_6-1ハッチング
  6
CONTINUOUS
 62
    6
 10
65.199359654243835
 20
170.36237439498024
 11
67.059173525189863
 21
172.22218826592623
  0
LINE
  8
_0-6_6-1ハッチング
  6
CONTINUOUS
 62
    6
 10
125.84050252260135
 20
231.00351726333773
 11
131.09050252260155
 21
236.25351726333784
  0
LINE
  8
_0-6_6-1ハッチング
  6
CONTINUOUS
 62
    6
 10
65.264879295121375
 20
169.52986842375074
 11
67.124693166067345
 21
171.38968229469674
  0
LINE
  8
_0-6_6-1ハッチング
  6
CONTINUOUS
 62
    6
 10
129.98852813470836
 20
234.25351726333784
 11
131.98852813470836
 21
236.25351726333784
  0
LINE
  8
_0-6_6-1ハッチング
  6
CONTINUOUS
 62
    6
 10
126.73852813470846
 20
231.00351726333793
 11
127.13554510676806
 21
231.40053423539754
  0
LINE
  8
_0-6_6-1ハッチング
  6
CONTINUOUS
 62
    6
 10
65.330398935998858
 20
168.69736245252133
 11
67.190212806944828
 21
170.55717632346733
  0
LINE
  8
_0-6_6-1ハッチング
  6
CONTINUOUS
 62
    6
 10
130.88655374681537
 20
234.25351726333784
 11
132.88655374681525
 21
236.25351726333784
  0
LINE
  8
_0-6_6-1ハッチング
  6
CONTINUOUS
 62
    6
 10
65.395918576876227
 20
167.86485648129184
 11
67.255732447822197
 21
169.72467035223784
  0
LINE
  8
_0-6_6-1ハッチング
  6
CONTINUOUS
 62
    6
 10
131.78457935892214
 20
234.25351726333784
 11
133.78457935892214
 21
236.25351726333784
  0
LINE
  8
_0-6_6-1ハッチング
  6
CONTINUOUS
 62
    6
 10
65.46143821775371
 20
167.03235051006234
 11
67.32125208869968
 21
168.89216438100834
  0
LINE
  8
_0-6_6-1ハッチング
  6
CONTINUOUS
 62
    6
 10
132.68260497102915
 20
234.25351726333784
 11
134.68260497102915
 21
236.25351726333784
  0
LINE
  8
_0-6_6-1ハッチング
  6
CONTINUOUS
 62
    6
 10
65.526957858631079
 20
166.19984453883293
 11
67.386771729577049
 21
168.05965840977882
  0
LINE
  8
_0-6_6-1ハッチング
  6
CONTINUOUS
 62
    6
 10
133.58063058313596
 20
234.25351726333784
 11
135.58063058313607
 21
236.25351726333784
  0
LINE
  8
_0-6_6-1ハッチング
  6
CONTINUOUS
 62
    6
 10
65.592477499508561
 20
165.36733856760344
 11
67.452291370454532
 21
167.22715243854944
  0
LINE
  8
_0-6_6-1ハッチング
  6
CONTINUOUS
 62
    6
 10
134.47865619524285
 20
234.25351726333784
 11
136.47865619524296
 21
236.25351726333784
  0
LINE
  8
_0-6_6-1ハッチング
  6
CONTINUOUS
 62
    6
 10
65.657997140386044
 20
164.53483259637403
 11
67.517811011332014
 21
166.39464646731994
  0
LINE
  8
_0-6_6-1ハッチング
  6
CONTINUOUS
 62
    6
 10
135.37668180734977
 20
234.25351726333784
 11
137.37668180734977
 21
236.25351726333784
  0
LINE
  8
_0-6_6-1ハッチング
  6
CONTINUOUS
 62
    6
 10
65.72351678126347
 20
163.70232662514442
 11
67.583330652209554
 21
165.56214049609054
  0
LINE
  8
_0-6_6-1ハッチング
  6
CONTINUOUS
 62
    6
 10
136.27470741945675
 20
234.25351726333784
 11
138.27470741945666
 21
236.25351726333764
  0
LINE
  8
_0-6_6-1ハッチング
  6
CONTINUOUS
 62
    6
 10
65.789036422140896
 20
162.86982065391504
 11
67.648850293086866
 21
164.72963452486104
  0
LINE
  8
_0-6_6-1ハッチング
  6
CONTINUOUS
 62
    6
 10
137.17273303156367
 20
234.25351726333784
 11
139.17273303156355
 21
236.25351726333773
  0
LINE
  8
_0-6_6-1ハッチング
  6
CONTINUOUS
 62
    6
 10
65.854556063018322
 20
162.03731468268552
 11
67.714369933964292
 21
163.89712855363152
  0
LINE
  8
_0-6_6-1ハッチング
  6
CONTINUOUS
 62
    6
 10
138.07075864367056
 20
234.25351726333784
 11
140.07075864367044
 21
236.25351726333773
  0
LINE
  8
_0-6_6-1ハッチング
  6
CONTINUOUS
 62
    6
 10
65.920075703895805
 20
161.20480871145602
 11
67.779889574841775
 21
163.06462258240202
  0
LINE
  8
_0-6_6-1ハッチング
  6
CONTINUOUS
 62
    6
 10
138.96878425577756
 20
234.25351726333784
 11
140.96878425577756
 21
236.25351726333784
  0
LINE
  8
_0-6_6-1ハッチング
  6
CONTINUOUS
 62
    6
 10
65.98559534477323
 20
160.37230274022664
 11
67.845409215719201
 21
162.23211661117264
  0
LINE
  8
_0-6_6-1ハッチング
  6
CONTINUOUS
 62
    6
 10
139.86680986788437
 20
234.25351726333784
 11
141.86680986788437
 21
236.25351726333784
  0
LINE
  8
_0-6_6-1ハッチング
  6
CONTINUOUS
 62
    6
 10
66.051114985650656
 20
159.53979676899712
 11
67.910928856596627
 21
161.39961063994312
  0
LINE
  8
_0-6_6-1ハッチング
  6
CONTINUOUS
 62
    6
 10
140.76483547999135
 20
234.25351726333784
 11
142.76483547999126
 21
236.25351726333784
  0
LINE
  8
_0-6_6-1ハッチング
  6
CONTINUOUS
 62
    6
 10
66.116634626528139
 20
158.70729079776763
 11
67.976448497474109
 21
160.56710466871363
  0
LINE
  8
_0-6_6-1ハッチング
  6
CONTINUOUS
 62
    6
 10
141.66286109209835
 20
234.25351726333784
 11
143.66286109209827
 21
236.25351726333784
  0
LINE
  8
_0-6_6-1ハッチング
  6
CONTINUOUS
 62
    6
 10
66.182154267405565
 20
157.87478482653813
 11
68.041968138351535
 21
159.73459869748413
  0
LINE
  8
_0-6_6-1ハッチング
  6
CONTINUOUS
 62
    6
 10
142.56088670420516
 20
234.25351726333784
 11
144.56088670420516
 21
236.25351726333784
  0
LINE
  8
_0-6_6-1ハッチング
  6
CONTINUOUS
 62
    6
 10
66.247673908282991
 20
157.04227885530872
 11
68.911811026942701
 21
159.70641597396843
  0
LINE
  8
_0-6_6-1ハッチング
  6
CONTINUOUS
 62
    6
 10
143.45891231631205
 20
234.25351726333784
 11
145.45891231631205
 21
236.25351726333784
  0
LINE
  8
_0-6_6-1ハッチング
  6
CONTINUOUS
 62
    6
 10
66.313193549160474
 20
156.20977288407923
 11
68.173007420106671
 21
158.06958675502543
  0
LINE
  8
_0-6_6-1ハッチング
  6
CONTINUOUS
 62
    6
 10
144.35693792841914
 20
234.25351726333793
 11
146.35693792841886
 21
236.25351726333773
  0
LINE
  8
_0-6_6-1ハッチング
  6
CONTINUOUS
 62
    6
 10
68.79776915021921
 20
158.69434848513802
 11
69.886550282142821
 21
159.78312961706163
  0
LINE
  8
_0-6_6-1ハッチング
  6
CONTINUOUS
 62
    6
 10
66.378713190037899
 20
155.37726691284973
 11
68.238527060984097
 21
157.23708078379593
  0
LINE
  8
_0-6_6-1ハッチング
  6
CONTINUOUS
 62
    6
 10
145.25496354052595
 20
234.25351726333784
 11
147.25496354052586
 21
236.25351726333773
  0
LINE
  8
_0-6_6-1ハッチング
  6
CONTINUOUS
 62
    6
 10
69.772508405419387
 20
158.77106212823122
 11
70.861289537342998
 21
159.85984326015483
  0
LINE
  8
_0-6_6-1ハッチング
  6
CONTINUOUS
 62
    6
 10
66.444232830915325
 20
154.54476094162032
 11
68.304046701861523
 21
156.40457481256652
  0
LINE
  8
_0-6_6-1ハッチング
  6
CONTINUOUS
 62
    6
 10
146.15298915263287
 20
234.25351726333784
 11
147.93302381466205
 21
236.03355192536702
  0
LINE
  8
_0-6_6-1ハッチング
  6
CONTINUOUS
 62
    6
 10
70.74724766061945
 20
158.84777577132442
 11
71.836028792543118
 21
159.93655690324812
  0
LINE
  8
_0-6_6-1ハッチング
  6
CONTINUOUS
 62
    6
 10
66.509752471792751
 20
153.71225497039083
 11
68.369566342738892
 21
155.57206884133694
  0
LINE
  8
_0-6_6-1ハッチング
  6
CONTINUOUS
 62
    6
 10
146.85894589489075
 20
234.06144839348883
 11
148.34121727471054
 21
235.54371977330862
  0
LINE
  8
_0-6_6-1ハッチング
  6
CONTINUOUS
 62
    6
 10
71.721986915819627
 20
158.92448941441762
 11
72.810768047743181
 21
160.01327054634123
  0
LINE
  8
_0-6_6-1ハッチング
  6
CONTINUOUS
 62
    6
 10
67.252820511401183
 20
153.55729739789223
 11
68.435085983616432
 21
154.73956287010753
  0
LINE
  8
_0-6_6-1ハッチング
  6
CONTINUOUS
 62
    6
 10
147.30795870094417
 20
233.61243558743533
 11
148.74941073475935
 21
235.05388762125054
  0
LINE
  8
_0-6_6-1ハッチング
  6
CONTINUOUS
 62
    6
 10
72.696726171019804
 20
159.00120305751093
 11
73.785507302943302
 21
160.08998418943443
  0
LINE
  8
_0-6_6-1ハッチング
  6
CONTINUOUS
 62
    6
 10
68.22755976660136
 20
153.63401104098554
 11
68.500605624493915
 21
153.90705689887804
  0
LINE
  8
_0-6_6-1ハッチング
  6
CONTINUOUS
 62
    6
 10
147.75697150699764
 20
233.16342278138183
 11
149.15760419480785
 21
234.56405546919214
  0
LINE
  8
_0-6_6-1ハッチング
  6
CONTINUOUS
 62
    6
 10
73.671465426219982
 20
159.07791670060413
 11
74.760246558143479
 21
160.16669783252763
  0
LINE
  8
_0-6_6-1ハッチング
  6
CONTINUOUS
 62
    6
 10
74.646204681420045
 20
159.15463034369733
 11
75.734985813343542
 21
160.24341147562083
  0
LINE
  8
_0-6_6-1ハッチング
  6
CONTINUOUS
 62
    6
 10
148.20598431305106
 20
232.71440997532844
 11
149.56579765485637
 21
234.07422331713374
  0
LINE
  8
_0-6_6-1ハッチング
  6
CONTINUOUS
 62
    6
 10
75.620943936620165
 20
159.23134398679053
 11
76.070900390033046
 21
159.68130044020344
  0
LINE
  8
_0-6_6-1ハッチング
  6
CONTINUOUS
 62
    6
 10
148.65499711910456
 20
232.26539716927493
 11
149.97399111490506
 21
233.58439116507543
  0
LINE
  8
_0-6_6-1ハッチング
  6
CONTINUOUS
 62
    6
 10
149.10400992515795
 20
231.81638436322143
 11
150.54114282527425
 21
233.25351726333773
  0
LINE
  8
_0-6_6-1ハッチング
  6
CONTINUOUS
 62
    6
 10
149.18916843738117
 20
231.00351726333773
 11
151.43916843738106
 21
233.25351726333764
  0
LINE
  8
_0-6_6-1ハッチング
  6
CONTINUOUS
 62
    6
 10
150.00203553726504
 20
230.91835875111474
 11
152.33719404948795
 21
233.25351726333764
  0
LINE
  8
_0-6_6-1ハッチング
  6
CONTINUOUS
 62
    6
 10
151.23521966159507
 20
231.25351726333773
 11
153.23521966159495
 21
233.25351726333764
  0
LINE
  8
_0-6_6-1ハッチング
  6
CONTINUOUS
 62
    6
 10
152.13324527370185
 20
231.25351726333764
 11
154.13324527370185
 21
233.25351726333764
  0
LINE
  8
_0-6_6-1ハッチング
  6
CONTINUOUS
 62
    6
 10
153.03127088580885
 20
231.25351726333784
 11
155.03127088580877
 21
233.25351726333773
  0
LINE
  8
_0-6_6-1ハッチング
  6
CONTINUOUS
 62
    6
 10
153.92929649791586
 20
231.25351726333784
 11
155.92929649791566
 21
233.25351726333764
  0
LINE
  8
_0-6_6-1ハッチング
  6
CONTINUOUS
 62
    6
 10
154.78442656827207
 20
231.21062172158713
 11
156.82732211002255
 21
233.25351726333764
  0
LINE
  8
_0-6_6-1ハッチング
  6
CONTINUOUS
 62
    6
 10
155.22667926980077
 20
230.75484881100894
 11
157.72534772212947
 21
233.25351726333764
  0
LINE
  8
_0-6_6-1ハッチング
  6
CONTINUOUS
 62
    6
 10
156.62337333423636
 20
231.25351726333764
 11
158.62337333423636
 21
233.25351726333764
  0
LINE
  8
_0-6_6-1ハッチング
  6
CONTINUOUS
 62
    6
 10
157.52139894634345
 20
231.25351726333773
 11
159.52139894634337
 21
233.25351726333764
  0
LINE
  8
_0-6_6-1ハッチング
  6
CONTINUOUS
 62
    6
 10
158.41942455845034
 20
231.25351726333773
 11
160.24971936635305
 21
233.08381207124043
  0
LINE
  8
_0-6_6-1ハッチング
  6
CONTINUOUS
 62
    6
 10
159.28001142287687
 20
231.21607851565744
 11
160.24971936635296
 21
232.18578645913354
  0
LINE
  8
_0-6_6-1ハッチング
  6
CONTINUOUS
 62
    6
 10
159.71800611491025
 20
230.75604759558382
 11
160.24971936635316
 21
231.28776084702673
  0
LINE
  8
_0-6_6-1ハッチング
  6
CONTINUOUS
 62
    6
 10
267.17615191927297
 20
162.42935488365742
 11
266.57578366034625
 21
163.02972314258412
  0
LINE
  8
_0-6_6-1ハッチング
  6
CONTINUOUS
 62
    6
 10
268.00811608145773
 20
162.49541633357944
 11
266.49832620647766
 21
164.00520620855963
  0
LINE
  8
_0-6_6-1ハッチング
  6
CONTINUOUS
 62
    6
 10
268.05537690743853
 20
163.34618111970562
 11
266.42086875260918
 21
164.98068927453494
  0
LINE
  8
_0-6_6-1ハッチング
  6
CONTINUOUS
 62
    6
 10
267.97791945356994
 20
164.32166418568113
 11
266.34341129874065
 21
165.95617234051042
  0
LINE
  8
_0-6_6-1ハッチング
  6
CONTINUOUS
 62
    6
 10
267.90046199970146
 20
165.29714725165653
 11
266.26595384487217
 21
166.93165540648593
  0
LINE
  8
_0-6_6-1ハッチング
  6
CONTINUOUS
 62
    6
 10
267.82300454583293
 20
166.27263031763204
 11
266.18849639100364
 21
167.90713847246133
  0
LINE
  8
_0-6_6-1ハッチング
  6
CONTINUOUS
 62
    6
 10
267.74554709196445
 20
167.24811338360743
 11
266.11103893713505
 21
168.88262153843672
  0
LINE
  8
_0-6_6-1ハッチング
  6
CONTINUOUS
 62
    6
 10
267.66808963809598
 20
168.22359644958283
 11
266.03358148326657
 21
169.85810460441212
  0
LINE
  8
_0-6_6-1ハッチング
  6
CONTINUOUS
 62
    6
 10
267.59063218422733
 20
169.19907951555834
 11
265.95612402939804
 21
170.83358767038763
  0
LINE
  8
_0-6_6-1ハッチング
  6
CONTINUOUS
 62
    6
 10
267.51317473035886
 20
170.17456258153373
 11
265.87866657552956
 21
171.80907073636303
  0
LINE
  8
_0-6_6-1ハッチング
  6
CONTINUOUS
 62
    6
 10
267.43571727649038
 20
171.15004564750913
 11
265.80120912166103
 21
172.78455380233842
  0
LINE
  8
_0-6_6-1ハッチング
  6
CONTINUOUS
 62
    6
 10
267.35825982262173
 20
172.12552871348464
 11
265.72375166779244
 21
173.76003686831393
  0
LINE
  8
_0-6_6-1ハッチング
  6
CONTINUOUS
 62
    6
 10
267.28080236875326
 20
173.10101177946004
 11
265.64629421392408
 21
174.73551993428933
  0
LINE
  8
_0-6_6-1ハッチング
  6
CONTINUOUS
 62
    6
 10
267.20334491488478
 20
174.07649484543552
 11
265.56883676005543
 21
175.71100300026472
  0
LINE
  8
_0-6_6-1ハッチング
  6
CONTINUOUS
 62
    6
 10
267.12588746101636
 20
175.05197791141094
 11
265.49137930618696
 21
176.68648606624024
  0
LINE
  8
_0-6_6-1ハッチング
  6
CONTINUOUS
 62
    6
 10
267.04843000714766
 20
176.02746097738634
 11
265.41392185231848
 21
177.66196913221563
  0
LINE
  8
_0-6_6-1ハッチング
  6
CONTINUOUS
 62
    6
 10
266.97097255327918
 20
177.00294404336174
 11
265.33646439844983
 21
178.63745219819114
  0
LINE
  8
_0-6_6-1ハッチング
  6
CONTINUOUS
 62
    6
 10
266.89351509941076
 20
177.97842710933722
 11
265.25900694458136
 21
179.61293526416654
  0
LINE
  8
_0-6_6-1ハッチング
  6
CONTINUOUS
 62
    6
 10
266.81605764554217
 20
178.95391017531273
 11
265.18154949071288
 21
180.58841833014193
  0
LINE
  8
_0-6_6-1ハッチング
  6
CONTINUOUS
 62
    6
 10
266.73860019167358
 20
179.92939324128812
 11
265.10409203684435
 21
181.56390139611733
  0
LINE
  8
_0-6_6-1ハッチング
  6
CONTINUOUS
 62
    6
 10
266.66114273780516
 20
180.90487630726352
 11
265.02663458297587
 21
182.53938446209284
  0
LINE
  8
_0-6_6-1ハッチング
  6
CONTINUOUS
 62
    6
 10
266.58368528393663
 20
181.88035937323903
 11
264.94917712910734
 21
183.51486752806832
  0
LINE
  8
_0-6_6-1ハッチング
  6
CONTINUOUS
 62
    6
 10
266.50622783006804
 20
182.85584243921443
 11
264.87171967523875
 21
184.49035059404363
  0
LINE
  8
_0-6_6-1ハッチング
  6
CONTINUOUS
 62
    6
 10
266.42877037619957
 20
183.83132550518982
 11
264.79426222137027
 21
185.46583366001914
  0
LINE
  8
_0-6_6-1ハッチング
  6
CONTINUOUS
 62
    6
 10
266.35131292233103
 20
184.80680857116522
 11
264.71680476750186
 21
186.44131672599454
  0
LINE
  8
_0-6_6-1ハッチング
  6
CONTINUOUS
 62
    6
 10
266.27385546846244
 20
185.78229163714073
 11
264.63934731363315
 21
187.41679979197002
  0
LINE
  8
_0-6_6-1ハッチング
  6
CONTINUOUS
 62
    6
 10
266.19639801459397
 20
186.75777470311624
 11
264.56188985976473
 21
188.39228285794533
  0
LINE
  8
_0-6_6-1ハッチング
  6
CONTINUOUS
 62
    6
 10
266.11894056072543
 20
187.73325776909152
 11
264.48443240589626
 21
189.36776592392084
  0
LINE
  8
_0-6_6-1ハッチング
  6
CONTINUOUS
 62
    6
 10
266.04148310685696
 20
188.70874083506703
 11
264.40697495202778
 21
190.34324898989632
  0
LINE
  8
_0-6_6-1ハッチング
  6
CONTINUOUS
 62
    6
 10
265.96402565298848
 20
189.68422390104243
 11
264.32951749815913
 21
191.31873205587164
  0
LINE
  8
_0-6_6-1ハッチング
  6
CONTINUOUS
 62
    6
 10
265.88656819911995
 20
190.65970696701794
 11
264.25206004429066
 21
192.29421512184715
  0
LINE
  8
_0-6_6-1ハッチング
  6
CONTINUOUS
 62
    6
 10
265.80911074525136
 20
191.63519003299334
 11
264.17460259042218
 21
193.26969818782254
  0
LINE
  8
_0-6_6-1ハッチング
  6
CONTINUOUS
 62
    6
 10
265.73165329138288
 20
192.61067309896873
 11
264.09714513655354
 21
194.24518125379802
  0
LINE
  8
_0-6_6-1ハッチング
  6
CONTINUOUS
 62
    6
 10
265.65419583751435
 20
193.58615616494424
 11
264.01968768268506
 21
195.22066431977342
  0
LINE
  8
_0-6_6-1ハッチング
  6
CONTINUOUS
 62
    6
 10
265.57673838364576
 20
194.56163923091964
 11
263.94223022881664
 21
196.19614738574884
  0
LINE
  8
_0-6_6-1ハッチング
  6
CONTINUOUS
 62
    6
 10
265.49928092977723
 20
195.53712229689512
 11
263.86477277494805
 21
197.17163045172433
  0
LINE
  8
_0-6_6-1ハッチング
  6
CONTINUOUS
 62
    6
 10
265.42182347590864
 20
196.51260536287054
 11
263.78731532107957
 21
198.14711351769972
  0
LINE
  8
_0-6_6-1ハッチング
  6
CONTINUOUS
 62
    6
 10
265.34436602204028
 20
197.48808842884594
 11
263.70985786721093
 21
199.12259658367523
  0
LINE
  8
_0-6_6-1ハッチング
  6
CONTINUOUS
 62
    6
 10
265.26690856817174
 20
198.46357149482142
 11
263.63240041334268
 21
200.09807964965063
  0
LINE
  8
_0-6_6-1ハッチング
  6
CONTINUOUS
 62
    6
 10
265.18945111430327
 20
199.43905456079682
 11
263.55494295947398
 21
201.07356271562603
  0
LINE
  8
_0-6_6-1ハッチング
  6
CONTINUOUS
 62
    6
 10
265.11199366043468
 20
200.41453762677233
 11
263.47748550560544
 21
202.04904578160154
  0
LINE
  8
_0-6_6-1ハッチング
  6
CONTINUOUS
 62
    6
 10
265.03453620656614
 20
201.39002069274773
 11
263.40002805173697
 21
203.02452884757693
  0
LINE
  8
_0-6_6-1ハッチング
  6
CONTINUOUS
 62
    6
 10
264.95707875269767
 20
202.36550375872312
 11
263.32257059786843
 21
204.00001191355244
  0
LINE
  8
_0-6_6-1ハッチング
  6
CONTINUOUS
 62
    6
 10
264.87962129882914
 20
203.34098682469863
 11
263.24511314399984
 21
204.97549497952784
  0
LINE
  8
_0-6_6-1ハッチング
  6
CONTINUOUS
 62
    6
 10
264.80216384496066
 20
204.31646989067403
 11
263.16765569013137
 21
205.95097804550332
  0
LINE
  8
_0-6_6-1ハッチング
  6
CONTINUOUS
 62
    6
 10
264.72470639109218
 20
205.29195295664942
 11
263.09019823626295
 21
206.92646111147874
  0
LINE
  8
_0-6_6-1ハッチング
  6
CONTINUOUS
 62
    6
 10
264.64724893722354
 20
206.26743602262493
 11
263.01274078239436
 21
207.90194417745414
  0
LINE
  8
_0-6_6-1ハッチング
  6
CONTINUOUS
 62
    6
 10
264.56979148335506
 20
207.24291908860033
 11
262.93528332852588
 21
208.87742724342954
  0
LINE
  8
_0-6_6-1ハッチング
  6
CONTINUOUS
 62
    6
 10
264.49233402948653
 20
208.21840215457573
 11
262.85782587465735
 21
209.85291030940502
  0
LINE
  8
_0-6_6-1ハッチング
  6
CONTINUOUS
 62
    6
 10
264.41487657561794
 20
209.19388522055112
 11
262.78036842078876
 21
210.82839337538044
  0
LINE
  8
_0-6_6-1ハッチング
  6
CONTINUOUS
 62
    6
 10
264.33741912174958
 20
210.16936828652663
 11
262.70291096692034
 21
211.80387644135584
  0
LINE
  8
_0-6_6-1ハッチング
  6
CONTINUOUS
 62
    6
 10
264.25996166788104
 20
211.14485135250203
 11
262.62545351305175
 21
212.77935950733132
  0
LINE
  8
_0-6_6-1ハッチング
  6
CONTINUOUS
 62
    6
 10
264.18250421401245
 20
212.12033441847754
 11
262.54799605918316
 21
213.75484257330672
  0
LINE
  8
_0-6_6-1ハッチング
  6
CONTINUOUS
 62
    6
 10
264.10504676014398
 20
213.09581748445294
 11
262.47053860531463
 21
214.73032563928223
  0
LINE
  8
_0-6_6-1ハッチング
  6
CONTINUOUS
 62
    6
 10
264.02758930627556
 20
214.07130055042833
 11
262.39308115144627
 21
215.70580870525754
  0
LINE
  8
_0-6_6-1ハッチング
  6
CONTINUOUS
 62
    6
 10
263.95013185240697
 20
215.04678361640384
 11
262.31562369757773
 21
216.68129177123302
  0
LINE
  8
_0-6_6-1ハッチング
  6
CONTINUOUS
 62
    6
 10
263.87267439853838
 20
216.02226668237924
 11
262.23816624370914
 21
217.65677483720845
  0
LINE
  8
_0-6_6-1ハッチング
  6
CONTINUOUS
 62
    6
 10
263.79521694466985
 20
216.99774974835464
 11
262.16070878984067
 21
218.63225790318393
  0
LINE
  8
_0-6_6-1ハッチング
  6
CONTINUOUS
 62
    6
 10
263.71775949080137
 20
217.97323281433012
 11
262.08325133597214
 21
219.60774096915932
  0
LINE
  8
_0-6_6-1ハッチング
  6
CONTINUOUS
 62
    6
 10
263.64030203693284
 20
218.94871588030554
 11
262.00579388210355
 21
220.58322403513483
  0
LINE
  8
_0-6_6-1ハッチング
  6
CONTINUOUS
 62
    6
 10
263.56284458306425
 20
219.92419894628094
 11
261.92833642823507
 21
221.55870710111023
  0
LINE
  8
_0-6_6-1ハッチング
  6
CONTINUOUS
 62
    6
 10
263.48538712919583
 20
220.89968201225642
 11
261.85087897436665
 21
222.53419016708563
  0
LINE
  8
_0-6_6-1ハッチング
  6
CONTINUOUS
 62
    6
 10
263.40792967532724
 20
221.87516507823193
 11
261.77342152049806
 21
223.50967323306102
  0
LINE
  8
_0-6_6-1ハッチング
  6
CONTINUOUS
 62
    6
 10
263.33047222145876
 20
222.85064814420724
 11
261.69596406662953
 21
224.48515629903653
  0
LINE
  8
_0-6_6-1ハッチング
  6
CONTINUOUS
 62
    6
 10
263.25301476759023
 20
223.82613121018272
 11
261.61850661276105
 21
225.46063936501193
  0
LINE
  8
_0-6_6-1ハッチング
  6
CONTINUOUS
 62
    6
 10
263.17555731372175
 20
224.80161427615812
 11
261.54104915889258
 21
226.43612243098733
  0
LINE
  8
_0-6_6-1ハッチング
  6
CONTINUOUS
 62
    6
 10
263.09809985985328
 20
225.77709734213354
 11
261.46359170502393
 21
227.41160549696272
  0
LINE
  8
_0-6_6-1ハッチング
  6
CONTINUOUS
 62
    6
 10
263.02064240598463
 20
226.75258040810903
 11
261.38613425115545
 21
228.38708856293823
  0
LINE
  8
_0-6_6-1ハッチング
  6
CONTINUOUS
 62
    6
 10
262.94318495211616
 20
227.72806347408442
 11
261.30867679728698
 21
229.36257162891363
  0
LINE
  8
_0-6_6-1ハッチング
  6
CONTINUOUS
 62
    6
 10
262.86572749824768
 20
228.70354654005993
 11
261.23121934341845
 21
230.33805469488914
  0
LINE
  8
_0-6_6-1ハッチング
  6
CONTINUOUS
 62
    6
 10
262.78827004437926
 20
229.67902960603524
 11
261.15376188954986
 21
231.31353776086453
  0
LINE
  8
_0-6_6-1ハッチング
  6
CONTINUOUS
 62
    6
 10
262.71081259051056
 20
230.65451267201072
 11
261.07630443568144
 21
232.28902082683993
  0
LINE
  8
_0-6_6-1ハッチング
  6
CONTINUOUS
 62
    6
 10
262.63335513664214
 20
231.62999573798623
 11
261.00983361129073
 21
233.25351726333753
  0
LINE
  8
_0-6_6-1ハッチング
  6
CONTINUOUS
 62
    6
 10
263.40785922339785
 20
231.75351726333733
 11
261.90785922339768
 21
233.25351726333753
  0
LINE
  8
_0-6_6-1ハッチング
  6
CONTINUOUS
 62
    6
 10
264.30588483550486
 20
231.75351726333733
 11
262.80588483550457
 21
233.25351726333753
  0
LINE
  8
_0-6_6-1ハッチング
  6
CONTINUOUS
 62
    6
 10
265.20391044761163
 20
231.75351726333733
 11
263.70391044761158
 21
233.25351726333753
  0
LINE
  8
_0-6_6-1ハッチング
  6
CONTINUOUS
 62
    6
 10
266.10193605971858
 20
231.75351726333733
 11
264.60193605971835
 21
233.25351726333764
  0
LINE
  8
_0-6_6-1ハッチング
  6
CONTINUOUS
 62
    6
 10
266.99996167182553
 20
231.75351726333724
 11
265.49996167182525
 21
233.25351726333753
  0
LINE
  8
_0-6_6-1ハッチング
  6
CONTINUOUS
 62
    6
 10
267.89798728393248
 20
231.75351726333733
 11
266.39798728393225
 21
233.25351726333753
  0
LINE
  8
_0-6_6-1ハッチング
  6
CONTINUOUS
 62
    6
 10
268.79601289603937
 20
231.75351726333744
 11
267.29601289603926
 21
233.25351726333753
  0
LINE
  8
_0-6_6-1ハッチング
  6
CONTINUOUS
 62
    6
 10
269.69403850814626
 20
231.75351726333733
 11
268.19403850814604
 21
233.25351726333753
  0
LINE
  8
_0-6_6-1ハッチング
  6
CONTINUOUS
 62
    6
 10
270.59206412025316
 20
231.75351726333733
 11
269.09206412025293
 21
233.25351726333753
  0
LINE
  8
_0-6_6-1ハッチング
  6
CONTINUOUS
 62
    6
 10
271.49008973236016
 20
231.75351726333744
 11
269.99008973235993
 21
233.25351726333753
  0
LINE
  8
_0-6_6-1ハッチング
  6
CONTINUOUS
 62
    6
 10
272.38811534446694
 20
231.75351726333733
 11
270.88811534446688
 21
233.25351726333753
  0
LINE
  8
_0-6_6-1ハッチング
  6
CONTINUOUS
 62
    6
 10
273.28614095657383
 20
231.75351726333744
 11
271.78614095657377
 21
233.25351726333753
  0
LINE
  8
_0-6_6-1ハッチング
  6
CONTINUOUS
 62
    6
 10
274.18416656868084
 20
231.75351726333733
 11
272.68416656868067
 21
233.25351726333753
  0
LINE
  8
_0-6_6-1ハッチング
  6
CONTINUOUS
 62
    6
 10
275.08219218078773
 20
231.75351726333744
 11
273.58219218078767
 21
233.25351726333753
  0
LINE
  8
_0-6_6-1ハッチング
  6
CONTINUOUS
 62
    6
 10
275.98021779289468
 20
231.75351726333744
 11
274.48021779289445
 21
233.25351726333753
  0
LINE
  8
_0-6_6-1ハッチング
  6
CONTINUOUS
 62
    6
 10
276.87824340500157
 20
231.75351726333744
 11
275.37824340500146
 21
233.25351726333753
  0
LINE
  8
_0-6_6-1ハッチング
  6
CONTINUOUS
 62
    6
 10
277.77626901710846
 20
231.75351726333744
 11
276.27626901710835
 21
233.25351726333753
  0
LINE
  8
_0-6_6-1ハッチング
  6
CONTINUOUS
 62
    6
 10
278.67429462921535
 20
231.75351726333733
 11
277.17429462921524
 21
233.25351726333753
  0
LINE
  8
_0-6_6-1ハッチング
  6
CONTINUOUS
 62
    6
 10
279.57232024132236
 20
231.75351726333744
 11
278.07232024132213
 21
233.25351726333753
  0
LINE
  8
_0-6_6-1ハッチング
  6
CONTINUOUS
 62
    6
 10
280.47034585342914
 20
231.75351726333744
 11
278.97034585342908
 21
233.25351726333753
  0
LINE
  8
_0-6_6-1ハッチング
  6
CONTINUOUS
 62
    6
 10
281.36837146553603
 20
231.75351726333744
 11
279.86837146553597
 21
233.25351726333753
  0
LINE
  8
_0-6_6-1ハッチング
  6
CONTINUOUS
 62
    6
 10
282.26639707764303
 20
231.75351726333733
 11
280.76639707764298
 21
233.25351726333753
  0
LINE
  8
_0-6_6-1ハッチング
  6
CONTINUOUS
 62
    6
 10
283.16442268974998
 20
231.75351726333744
 11
281.66442268974987
 21
233.25351726333753
  0
LINE
  8
_0-6_6-1ハッチング
  6
CONTINUOUS
 62
    6
 10
284.06244830185688
 20
231.75351726333744
 11
282.56244830185676
 21
233.25351726333753
  0
LINE
  8
_0-6_6-1ハッチング
  6
CONTINUOUS
 62
    6
 10
284.96047391396377
 20
231.75351726333744
 11
283.46047391396365
 21
233.25351726333753
  0
LINE
  8
_0-6_6-1ハッチング
  6
CONTINUOUS
 62
    6
 10
285.85849952607066
 20
231.75351726333744
 11
284.35849952607055
 21
233.25351726333753
  0
LINE
  8
_0-6_6-1ハッチング
  6
CONTINUOUS
 62
    6
 10
286.75652513817755
 20
231.75351726333744
 11
285.25652513817744
 21
233.25351726333753
  0
LINE
  8
_0-6_6-1ハッチング
  6
CONTINUOUS
 62
    6
 10
287.65455075028456
 20
231.75351726333744
 11
286.15455075028433
 21
233.25351726333744
  0
LINE
  8
_0-6_6-1ハッチング
  6
CONTINUOUS
 62
    6
 10
288.55257636239133
 20
231.75351726333744
 11
287.05257636239133
 21
233.25351726333753
  0
LINE
  8
_0-6_6-1ハッチング
  6
CONTINUOUS
 62
    6
 10
289.45060197449834
 20
231.75351726333744
 11
287.95060197449817
 21
233.25351726333753
  0
LINE
  8
_0-6_6-1ハッチング
  6
CONTINUOUS
 62
    6
 10
290.34862758660523
 20
231.75351726333744
 11
288.84862758660518
 21
233.25351726333753
  0
LINE
  8
_0-6_6-1ハッチング
  6
CONTINUOUS
 62
    6
 10
291.24665319871218
 20
231.75351726333744
 11
289.74665319871207
 21
233.25351726333744
  0
LINE
  8
_0-6_6-1ハッチング
  6
CONTINUOUS
 62
    6
 10
292.14467881081907
 20
231.75351726333744
 11
290.64467881081896
 21
233.25351726333753
  0
LINE
  8
_0-6_6-1ハッチング
  6
CONTINUOUS
 62
    6
 10
293.04270442292608
 20
231.75351726333744
 11
291.54270442292585
 21
233.25351726333753
  0
LINE
  8
_0-6_6-1ハッチング
  6
CONTINUOUS
 62
    6
 10
293.94073003503286
 20
231.75351726333744
 11
292.44073003503286
 21
233.25351726333753
  0
LINE
  8
_0-6_6-1ハッチング
  6
CONTINUOUS
 62
    6
 10
294.83875564713975
 20
231.75351726333744
 11
293.33875564713975
 21
233.25351726333753
  0
LINE
  8
_0-6_6-1ハッチング
  6
CONTINUOUS
 62
    6
 10
295.73678125924675
 20
231.75351726333744
 11
294.23678125924664
 21
233.25351726333753
  0
LINE
  8
_0-6_6-1ハッチング
  6
CONTINUOUS
 62
    6
 10
296.63480687135365
 20
231.75351726333744
 11
295.13480687135353
 21
233.25351726333753
  0
LINE
  8
_0-6_6-1ハッチング
  6
CONTINUOUS
 62
    6
 10
297.53283248346054
 20
231.75351726333744
 11
296.03283248346048
 21
233.25351726333753
  0
LINE
  8
_0-6_6-1ハッチング
  6
CONTINUOUS
 62
    6
 10
298.43085809556743
 20
231.75351726333744
 11
296.93085809556743
 21
233.25351726333753
  0
LINE
  8
_0-6_6-1ハッチング
  6
CONTINUOUS
 62
    6
 10
299.32888370767444
 20
231.75351726333744
 11
297.82888370767438
 21
233.25351726333753
  0
LINE
  8
_0-6_6-1ハッチング
  6
CONTINUOUS
 62
    6
 10
300.22690931978127
 20
231.75351726333744
 11
298.72690931978116
 21
233.25351726333753
  0
LINE
  8
_0-6_6-1ハッチング
  6
CONTINUOUS
 62
    6
 10
301.12493493188816
 20
231.75351726333753
 11
299.62493493188805
 21
233.25351726333753
  0
LINE
  8
_0-6_6-1ハッチング
  6
CONTINUOUS
 62
    6
 10
302.02296054399505
 20
231.75351726333753
 11
300.52296054399505
 21
233.25351726333753
  0
LINE
  8
_0-6_6-1ハッチング
  6
CONTINUOUS
 62
    6
 10
302.92098615610195
 20
231.75351726333744
 11
301.42098615610195
 21
233.25351726333744
  0
LINE
  8
_0-6_6-1ハッチング
  6
CONTINUOUS
 62
    6
 10
303.81901176820884
 20
231.75351726333753
 11
302.31901176820884
 21
233.25351726333753
  0
LINE
  8
_0-6_6-1ハッチング
  6
CONTINUOUS
 62
    6
 10
304.71703738031584
 20
231.75351726333744
 11
303.21703738031573
 21
233.25351726333753
  0
LINE
  8
_0-6_6-1ハッチング
  6
CONTINUOUS
 62
    6
 10
305.61506299242274
 20
231.75351726333753
 11
304.11506299242274
 21
233.25351726333753
  0
LINE
  8
_0-6_6-1ハッチング
  6
CONTINUOUS
 62
    6
 10
306.51308860452968
 20
231.75351726333744
 11
305.01308860452968
 21
233.25351726333753
  0
LINE
  8
_0-6_6-1ハッチング
  6
CONTINUOUS
 62
    6
 10
307.41111421663658
 20
231.75351726333753
 11
305.91111421663658
 21
233.25351726333753
  0
LINE
  8
_0-6_6-1ハッチング
  6
CONTINUOUS
 62
    6
 10
308.30913982874358
 20
231.75351726333753
 11
306.80913982874347
 21
233.25351726333753
  0
LINE
  8
_0-6_6-1ハッチング
  6
CONTINUOUS
 62
    6
 10
309.20716544085036
 20
231.75351726333753
 11
307.70716544085036
 21
233.25351726333744
  0
LINE
  8
_0-6_6-1ハッチング
  6
CONTINUOUS
 62
    6
 10
310.10519105295725
 20
231.75351726333753
 11
308.60519105295737
 21
233.25351726333753
  0
LINE
  8
_0-6_6-1ハッチング
  6
CONTINUOUS
 62
    6
 10
311.00321666506426
 20
231.75351726333753
 11
309.50321666506426
 21
233.25351726333753
  0
LINE
  8
_0-6_6-1ハッチング
  6
CONTINUOUS
 62
    6
 10
311.90124227717115
 20
231.75351726333753
 11
310.40124227717104
 21
233.25351726333753
  0
LINE
  8
_0-6_6-1ハッチング
  6
CONTINUOUS
 62
    6
 10
312.79926788927804
 20
231.75351726333744
 11
311.29926788927793
 21
233.25351726333753
  0
LINE
  8
_0-6_6-1ハッチング
  6
CONTINUOUS
 62
    6
 10
313.69729350138493
 20
231.75351726333753
 11
312.19729350138493
 21
233.25351726333753
  0
LINE
  8
_0-6_6-1ハッチング
  6
CONTINUOUS
 62
    6
 10
314.59531911349194
 20
231.75351726333753
 11
313.09531911349188
 21
233.25351726333753
  0
LINE
  8
_0-6_6-1ハッチング
  6
CONTINUOUS
 62
    6
 10
315.49334472559877
 20
231.75351726333753
 11
313.99334472559877
 21
233.25351726333753
  0
LINE
  8
_0-6_6-1ハッチング
  6
CONTINUOUS
 62
    6
 10
316.39137033770578
 20
231.75351726333753
 11
314.89137033770578
 21
233.25351726333753
  0
LINE
  8
_0-6_6-1ハッチング
  6
CONTINUOUS
 62
    6
 10
317.28939594981267
 20
231.75351726333753
 11
315.78939594981267
 21
233.25351726333753
  0
LINE
  8
_0-6_6-1ハッチング
  6
CONTINUOUS
 62
    6
 10
318.18742156191945
 20
231.75351726333753
 11
316.68742156191956
 21
233.25351726333753
  0
LINE
  8
_0-6_6-1ハッチング
  6
CONTINUOUS
 62
    6
 10
319.08544717402646
 20
231.75351726333753
 11
317.58544717402646
 21
233.25351726333753
  0
LINE
  8
_0-6_6-1ハッチング
  6
CONTINUOUS
 62
    6
 10
319.98347278613346
 20
231.75351726333753
 11
318.48347278613346
 21
233.25351726333753
  0
LINE
  8
_0-6_6-1ハッチング
  6
CONTINUOUS
 62
    6
 10
320.88149839824024
 20
231.75351726333753
 11
319.38149839824035
 21
233.25351726333753
  0
LINE
  8
_0-6_6-1ハッチング
  6
CONTINUOUS
 62
    6
 10
321.77952401034713
 20
231.75351726333753
 11
320.27952401034725
 21
233.25351726333753
  0
LINE
  8
_0-6_6-1ハッチング
  6
CONTINUOUS
 62
    6
 10
322.67754962245414
 20
231.75351726333753
 11
321.17754962245408
 21
233.25351726333753
  0
LINE
  8
_0-6_6-1ハッチング
  6
CONTINUOUS
 62
    6
 10
323.57557523456103
 20
231.75351726333753
 11
322.07557523456103
 21
233.25351726333753
  0
LINE
  8
_0-6_6-1ハッチング
  6
CONTINUOUS
 62
    6
 10
324.47360084666798
 20
231.75351726333753
 11
322.97360084666798
 21
233.25351726333744
  0
LINE
  8
_0-6_6-1ハッチング
  6
CONTINUOUS
 62
    6
 10
325.37162645877487
 20
231.75351726333753
 11
323.87162645877487
 21
233.25351726333753
  0
LINE
  8
_0-6_6-1ハッチング
  6
CONTINUOUS
 62
    6
 10
326.26965207088176
 20
231.75351726333753
 11
324.76965207088176
 21
233.25351726333753
  0
LINE
  8
_0-6_6-1ハッチング
  6
CONTINUOUS
 62
    6
 10
326.75123388471513
 20
232.16996106161102
 11
325.64822129927575
 21
233.27297364705043
  0
LINE
  8
_0-6_6-1ハッチング
  6
CONTINUOUS
 62
    6
 10
327.07209706638304
 20
232.74712349205004
 11
325.96908448094354
 21
233.85013607748942
  0
LINE
  8
_0-6_6-1ハッチング
  6
CONTINUOUS
 62
    6
 10
327.39296024805088
 20
233.32428592248914
 11
326.28994766261144
 21
234.42729850792853
  0
LINE
  8
_0-6_6-1ハッチング
  6
CONTINUOUS
 62
    6
 10
327.71382342971873
 20
233.90144835292824
 11
326.61081084427923
 21
235.00446093836763
  0
LINE
  8
_0-6_6-1ハッチング
  6
CONTINUOUS
 62
    6
 10
328.03468661138658
 20
234.47861078336734
 11
326.93167402594707
 21
235.58162336880673
  0
LINE
  8
_0-6_6-1ハッチング
  6
CONTINUOUS
 62
    6
 10
328.70780574352318
 20
234.70351726333755
 11
327.25253720761498
 21
236.15878579924583
  0
LINE
  8
_0-6_6-1ハッチング
  6
CONTINUOUS
 62
    6
 10
329.60583135563013
 20
234.70351726333763
 11
328.10583135563013
 21
236.20351726333755
  0
LINE
  8
_0-6_6-1ハッチング
  6
CONTINUOUS
 62
    6
 10
330.50385696773708
 20
234.70351726333755
 11
329.00385696773697
 21
236.20351726333755
  0
LINE
  8
_0-6_6-1ハッチング
  6
CONTINUOUS
 62
    6
 10
331.40188257984397
 20
234.70351726333763
 11
329.90188257984397
 21
236.20351726333755
  0
LINE
  8
_0-6_6-1ハッチング
  6
CONTINUOUS
 62
    6
 10
332.29990819195086
 20
234.70351726333755
 11
330.79990819195086
 21
236.20351726333755
  0
LINE
  8
_0-6_6-1ハッチング
  6
CONTINUOUS
 62
    6
 10
333.19793380405775
 20
234.70351726333763
 11
331.69793380405775
 21
236.20351726333763
  0
LINE
  8
_0-6_6-1ハッチング
  6
CONTINUOUS
 62
    6
 10
334.09595941616465
 20
234.70351726333763
 11
332.59595941616465
 21
236.20351726333755
  0
LINE
  8
_0-6_6-1ハッチング
  6
CONTINUOUS
 62
    6
 10
334.99398502827165
 20
234.70351726333755
 11
333.49398502827165
 21
236.20351726333755
  0
LINE
  8
_0-6_6-1ハッチング
  6
CONTINUOUS
 62
    6
 10
335.89201064037854
 20
234.70351726333763
 11
334.39201064037854
 21
236.20351726333755
  0
LINE
  8
_0-6_6-1ハッチング
  6
CONTINUOUS
 62
    6
 10
336.79003625248544
 20
234.70351726333755
 11
335.29003625248544
 21
236.20351726333755
  0
LINE
  8
_0-6_6-1ハッチング
  6
CONTINUOUS
 62
    6
 10
337.68806186459238
 20
234.70351726333763
 11
336.18806186459238
 21
236.20351726333755
  0
LINE
  8
_0-6_6-1ハッチング
  6
CONTINUOUS
 62
    6
 10
338.58608747669928
 20
234.70351726333763
 11
337.08608747669928
 21
236.20351726333763
  0
LINE
  8
_0-6_6-1ハッチング
  6
CONTINUOUS
 62
    6
 10
339.48411308880628
 20
234.70351726333763
 11
337.98411308880628
 21
236.20351726333763
  0
LINE
  8
_0-6_6-1ハッチング
  6
CONTINUOUS
 62
    6
 10
340.38213870091306
 20
234.70351726333763
 11
338.88213870091306
 21
236.20351726333755
  0
LINE
  8
_0-6_6-1ハッチング
  6
CONTINUOUS
 62
    6
 10
341.28016431301995
 20
234.70351726333763
 11
339.78016431301995
 21
236.20351726333763
  0
LINE
  8
_0-6_6-1ハッチング
  6
CONTINUOUS
 62
    6
 10
342.17818992512696
 20
234.70351726333763
 11
340.67818992512696
 21
236.20351726333763
  0
LINE
  8
_0-6_6-1ハッチング
  6
CONTINUOUS
 62
    6
 10
343.07621553723374
 20
234.70351726333755
 11
341.57621553723385
 21
236.20351726333755
  0
LINE
  8
_0-6_6-1ハッチング
  6
CONTINUOUS
 62
    6
 10
346.92424114934084
 20
231.75351726333744
 11
342.47424114934074
 21
236.20351726333755
  0
LINE
  8
_0-6_6-1ハッチング
  6
CONTINUOUS
 62
    6
 10
347.82226676144774
 20
231.75351726333753
 11
343.37226676144763
 21
236.20351726333763
  0
LINE
  8
_0-6_6-1ハッチング
  6
CONTINUOUS
 62
    6
 10
348.72029237355468
 20
231.75351726333744
 11
347.22029237355468
 21
233.25351726333744
  0
LINE
  8
_0-6_6-1ハッチング
  6
CONTINUOUS
 62
    6
 10
345.95908270486973
 20
234.51472693202234
 11
344.27029237355458
 21
236.20351726333755
  0
LINE
  8
_0-6_6-1ハッチング
  6
CONTINUOUS
 62
    6
 10
349.61831798566163
 20
231.75351726333744
 11
348.11831798566158
 21
233.25351726333753
  0
LINE
  8
_0-6_6-1ハッチング
  6
CONTINUOUS
 62
    6
 10
350.51634359776858
 20
231.75351726333753
 11
349.01634359776847
 21
233.25351726333753
  0
LINE
  8
_0-6_6-1ハッチング
  6
CONTINUOUS
 62
    6
 10
351.41436920987547
 20
231.75351726333753
 11
349.91436920987547
 21
233.25351726333753
  0
LINE
  8
_0-6_6-1ハッチング
  6
CONTINUOUS
 62
    6
 10
352.31239482198225
 20
231.75351726333744
 11
350.81239482198225
 21
233.25351726333753
  0
LINE
  8
_0-6_6-1ハッチング
  6
CONTINUOUS
 62
    6
 10
353.21042043408926
 20
231.75351726333753
 11
351.71042043408926
 21
233.25351726333753
  0
LINE
  8
_0-6_6-1ハッチング
  6
CONTINUOUS
 62
    6
 10
354.10844604619626
 20
231.75351726333744
 11
352.60844604619615
 21
233.25351726333753
  0
LINE
  8
_0-6_6-1ハッチング
  6
CONTINUOUS
 62
    6
 10
355.00647165830304
 20
231.75351726333744
 11
353.50647165830298
 21
233.25351726333753
  0
LINE
  8
_0-6_6-1ハッチング
  6
CONTINUOUS
 62
    6
 10
355.90449727040993
 20
231.75351726333753
 11
354.40449727040993
 21
233.25351726333753
  0
LINE
  8
_0-6_6-1ハッチング
  6
CONTINUOUS
 62
    6
 10
356.80252288251694
 20
231.75351726333753
 11
355.30252288251688
 21
233.25351726333753
  0
LINE
  8
_0-6_6-1ハッチング
  6
CONTINUOUS
 62
    6
 10
357.70054849462383
 20
231.75351726333753
 11
356.20054849462377
 21
233.25351726333764
  0
LINE
  8
_0-6_6-1ハッチング
  6
CONTINUOUS
 62
    6
 10
358.49971936635308
 20
231.85237200371523
 11
357.09857410673067
 21
233.25351726333753
  0
LINE
  8
_0-6_6-1ハッチング
  6
CONTINUOUS
 62
    6
 10
358.49971936635313
 20
232.75039761582204
 11
357.99659971883756
 21
233.25351726333764
  0
ARC
  8
_0-5_5-1実寸型
  6
CONTINUOUS
 62
    1
 10
150.24971936635276
 20
230.95351726333794
 40
0.2000000000000394
 50
224.90717867967081
 51
321.02333998123191
  0
LINE
  8
_0-5_5-1実寸型
  6
CONTINUOUS
 62
    1
 10
150.40519981767716
 20
230.82771651113043
 11
150.74971936635296
 21
231.25351726333764
  0
LINE
  8
_0-5_5-1実寸型
  6
CONTINUOUS
 62
    1
 10
150.74971936635296
 20
231.25351726333764
 11
154.74971936635285
 21
231.25351726333773
  0
LINE
  8
_0-5_5-1実寸型
  6
CONTINUOUS
 62
    1
 10
154.74971936635285
 20
231.25351726333773
 11
155.09423891502865
 21
230.82771651113052
  0
ARC
  8
_0-5_5-1実寸型
  6
CONTINUOUS
 62
    1
 10
155.24971936635296
 20
230.95351726333794
 40
0.1999999999999378
 50
218.97666001873642
 51
321.02333998126352
  0
LINE
  8
_0-5_5-1実寸型
  6
CONTINUOUS
 62
    1
 10
155.40519981767736
 20
230.82771651113052
 11
155.74971936635296
 21
231.25351726333764
  0
LINE
  8
_0-5_5-1実寸型
  6
CONTINUOUS
 62
    1
 10
155.74971936635296
 20
231.25351726333764
 11
159.24971936635296
 21
231.25351726333764
  0
LINE
  8
_0-5_5-1実寸型
  6
CONTINUOUS
 62
    1
 10
159.24971936635296
 20
231.25351726333764
 11
159.59423891502865
 21
230.82771651113052
  0
ARC
  8
_0-5_5-1実寸型
  6
CONTINUOUS
 62
    1
 10
159.74971936635305
 20
230.95351726333794
 40
0.2
 50
218.9766600187325
 51
299.16473045348067
  0
LINE
  8
_0-5_5-1実寸型
  6
CONTINUOUS
 62
    1
 10
159.84718381082286
 20
230.77887281863903
 11
160.24971936635296
 21
231.00351726333784
  0
LINE
  8
_0-5_5-1実寸型
  6
CONTINUOUS
 62
    1
 10
160.24971936635296
 20
231.00351726333784
 11
160.24971936635296
 21
233.25351726333753
  0
LINE
  8
_0-5_5-1実寸型
  6
CONTINUOUS
 62
    1
 10
160.24971936635296
 20
233.25351726333753
 11
150.24971936635296
 21
233.25351726333764
  0
LINE
  8
_0-5_5-1実寸型
  6
CONTINUOUS
 62
    1
 10
150.24971936635296
 20
233.25351726333764
 11
147.74971936635296
 21
236.25351726333773
  0
LINE
  8
_0-5_5-1実寸型
  6
CONTINUOUS
 62
    1
 10
147.74971936635296
 20
236.25351726333773
 11
138.04971936635295
 21
236.25351726333764
  0
LINE
  8
_0-5_5-1実寸型
  6
CONTINUOUS
 62
    1
 10
138.04971936635295
 20
236.25351726333764
 11
137.91870916120865
 21
236.04654787877084
  0
ARC
  8
_0-5_5-1実寸型
  6
CONTINUOUS
 62
    1
 10
137.74971936635296
 20
236.15351726333782
 40
0.1999999999999995
 50
212.33353069350156
 51
327.66646930649841
  0
LINE
  8
_0-5_5-1実寸型
  6
CONTINUOUS
 62
    1
 10
137.58072957149736
 20
236.04654787877084
 11
137.44971936635307
 21
236.25351726333773
  0
LINE
  8
_0-5_5-1実寸型
  6
CONTINUOUS
 62
    1
 10
137.44971936635307
 20
236.25351726333773
 11
127.74971936635296
 21
236.25351726333773
  0
LINE
  8
_0-5_5-1実寸型
  6
CONTINUOUS
 62
    1
 10
127.74971936635296
 20
236.25351726333773
 11
125.24971936635296
 21
233.25351726333764
  0
LINE
  8
_0-5_5-1実寸型
  6
CONTINUOUS
 62
    1
 10
125.24971936635296
 20
233.25351726333764
 11
60.24971936635302
 21
233.25351726333764
  0
LINE
  8
_0-5_5-1実寸型
  6
CONTINUOUS
 62
    1
 10
60.24971936635302
 20
233.25351726333764
 11
66.526447024580762
 21
153.50013056468734
  0
LINE
  8
_0-5_5-1実寸型
  6
CONTINUOUS
 62
    1
 10
66.526447024580762
 20
153.50013056468734
 11
68.520281692047092
 21
153.65704875614304
  0
LINE
  8
_0-5_5-1実寸型
  6
CONTINUOUS
 62
    1
 10
68.520281692047092
 20
153.65704875614304
 11
68.127986213407894
 21
158.64163542480892
  0
LINE
  8
_0-5_5-1実寸型
  6
CONTINUOUS
 62
    1
 10
68.127986213407894
 20
158.64163542480892
 11
76.103324883272762
 21
159.26930819063173
  0
LINE
  8
_0-5_5-1実寸型
  6
CONTINUOUS
 62
    1
 10
76.103324883272762
 20
159.26930819063173
 11
76.024865787544968
 21
160.26622552436473
  0
LINE
  8
_0-5_5-1実寸型
  6
CONTINUOUS
 62
    1
 10
76.024865787544968
 20
160.26622552436473
 11
68.049527117679872
 21
159.63855275854203
  0
LINE
  8
_0-5_5-1実寸型
  6
CONTINUOUS
 62
    1
 10
68.049527117679872
 20
159.63855275854203
 11
62.413307176967919
 21
231.25351726333773
  0
LINE
  8
_0-5_5-1実寸型
  6
CONTINUOUS
 62
    1
 10
62.413307176967919
 20
231.25351726333773
 11
89.749719366352906
 21
231.25351726333773
  0
LINE
  8
_0-5_5-1実寸型
  6
CONTINUOUS
 62
    1
 10
89.749719366352906
 20
231.25351726333773
 11
90.09423891502864
 21
230.82771651113052
  0
ARC
  8
_0-5_5-1実寸型
  6
CONTINUOUS
 62
    1
 10
90.24971936635302
 20
230.95351726333794
 40
0.1999999999999378
 50
218.97666001873642
 51
321.02333998126352
  0
LINE
  8
_0-5_5-1実寸型
  6
CONTINUOUS
 62
    1
 10
90.405199817677385
 20
230.82771651113052
 11
90.74971936635302
 21
231.25351726333764
  0
LINE
  8
_0-5_5-1実寸型
  6
CONTINUOUS
 62
    1
 10
90.74971936635302
 20
231.25351726333764
 11
94.749719366352792
 21
231.25351726333773
  0
LINE
  8
_0-5_5-1実寸型
  6
CONTINUOUS
 62
    1
 10
94.749719366352792
 20
231.25351726333773
 11
95.09423891502864
 21
230.82771651113043
  0
ARC
  8
_0-5_5-1実寸型
  6
CONTINUOUS
 62
    1
 10
95.24971936635302
 20
230.95351726333783
 40
0.1999999999999378
 50
218.97666001873642
 51
321.02333998126352
  0
LINE
  8
_0-5_5-1実寸型
  6
CONTINUOUS
 62
    1
 10
95.405199817677385
 20
230.82771651113043
 11
95.74971936635302
 21
231.25351726333753
  0
LINE
  8
_0-5_5-1実寸型
  6
CONTINUOUS
 62
    1
 10
95.74971936635302
 20
231.25351726333753
 11
99.749719366352906
 21
231.25351726333784
  0
LINE
  8
_0-5_5-1実寸型
  6
CONTINUOUS
 62
    1
 10
99.749719366352906
 20
231.25351726333784
 11
100.09423891502867
 21
230.82771651113052
  0
ARC
  8
_0-5_5-1実寸型
  6
CONTINUOUS
 62
    1
 10
100.24971936635296
 20
230.95351726333794
 40
0.1999999999999378
 50
218.97666001873642
 51
321.02333998126352
  0
LINE
  8
_0-5_5-1実寸型
  6
CONTINUOUS
 62
    1
 10
100.40519981767736
 20
230.82771651113052
 11
100.74971936635296
 21
231.25351726333764
  0
LINE
  8
_0-5_5-1実寸型
  6
CONTINUOUS
 62
    1
 10
100.74971936635296
 20
231.25351726333764
 11
104.74971936635275
 21
231.25351726333784
  0
LINE
  8
_0-5_5-1実寸型
  6
CONTINUOUS
 62
    1
 10
104.74971936635275
 20
231.25351726333784
 11
105.09423891502865
 21
230.82771651113043
  0
ARC
  8
_0-5_5-1実寸型
  6
CONTINUOUS
 62
    1
 10
105.24971936635296
 20
230.95351726333783
 40
0.1999999999999378
 50
218.97666001873642
 51
321.02333998126352
  0
LINE
  8
_0-5_5-1実寸型
  6
CONTINUOUS
 62
    1
 10
105.40519981767736
 20
230.82771651113043
 11
105.74971936635296
 21
231.25351726333753
  0
LINE
  8
_0-5_5-1実寸型
  6
CONTINUOUS
 62
    1
 10
105.74971936635296
 20
231.25351726333753
 11
109.74971936635265
 21
231.25351726333804
  0
LINE
  8
_0-5_5-1実寸型
  6
CONTINUOUS
 62
    1
 10
109.74971936635265
 20
231.25351726333804
 11
110.09423891502865
 21
230.82771651113043
  0
ARC
  8
_0-5_5-1実寸型
  6
CONTINUOUS
 62
    1
 10
110.24971936635296
 20
230.95351726333783
 40
0.1999999999999378
 50
218.97666001873642
 51
321.02333998126352
  0
LINE
  8
_0-5_5-1実寸型
  6
CONTINUOUS
 62
    1
 10
110.40519981767736
 20
230.82771651113043
 11
110.74971936635296
 21
231.25351726333753
  0
LINE
  8
_0-5_5-1実寸型
  6
CONTINUOUS
 62
    1
 10
110.74971936635296
 20
231.25351726333753
 11
114.74971936635286
 21
231.25351726333784
  0
LINE
  8
_0-5_5-1実寸型
  6
CONTINUOUS
 62
    1
 10
114.74971936635286
 20
231.25351726333784
 11
115.09423891502865
 21
230.82771651113052
  0
ARC
  8
_0-5_5-1実寸型
  6
CONTINUOUS
 62
    1
 10
115.24971936635296
 20
230.95351726333794
 40
0.1999999999999378
 50
218.97666001873642
 51
321.02333998126352
  0
LINE
  8
_0-5_5-1実寸型
  6
CONTINUOUS
 62
    1
 10
115.40519981767736
 20
230.82771651113052
 11
115.74971936635296
 21
231.25351726333764
  0
LINE
  8
_0-5_5-1実寸型
  6
CONTINUOUS
 62
    1
 10
115.74971936635296
 20
231.25351726333764
 11
119.74971936635296
 21
231.25351726333764
  0
LINE
  8
_0-5_5-1実寸型
  6
CONTINUOUS
 62
    1
 10
119.74971936635296
 20
231.25351726333764
 11
120.09423891502865
 21
230.82771651113052
  0
ARC
  8
_0-5_5-1実寸型
  6
CONTINUOUS
 62
    1
 10
120.24971936635296
 20
230.95351726333794
 40
0.1999999999999378
 50
218.97666001873642
 51
321.02333998126352
  0
LINE
  8
_0-5_5-1実寸型
  6
CONTINUOUS
 62
    1
 10
120.40519981767736
 20
230.82771651113052
 11
120.74971936635296
 21
231.25351726333764
  0
LINE
  8
_0-5_5-1実寸型
  6
CONTINUOUS
 62
    1
 10
120.74971936635296
 20
231.25351726333764
 11
124.76006545406426
 21
231.25351726333773
  0
LINE
  8
_0-5_5-1実寸型
  6
CONTINUOUS
 62
    1
 10
124.76006545406426
 20
231.25351726333773
 11
125.10458500274035
 21
230.82771651113043
  0
ARC
  8
_0-5_5-1実寸型
  6
CONTINUOUS
 62
    1
 10
125.26006545406466
 20
230.95351726333803
 40
0.2000000000000656
 50
218.976660018801
 51
315.09282132029182
  0
LINE
  8
_0-5_5-1実寸型
  6
CONTINUOUS
 62
    1
 10
125.40171573254246
 20
230.81232520050452
 11
125.59290779537555
 21
231.00351726333773
  0
LINE
  8
_0-5_5-1実寸型
  6
CONTINUOUS
 62
    1
 10
125.59290779537555
 20
231.00351726333773
 11
127.04971936635296
 21
231.00351726333804
  0
ARC
  8
_0-5_5-1実寸型
  6
CONTINUOUS
 62
    1
 10
127.04971936635296
 20
231.20351726333783
 40
0.1999999999999033
 50
269.99999999999591
 51
44.999999999985647
  0
LINE
  8
_0-5_5-1実寸型
  6
CONTINUOUS
 62
    1
 10
127.19114072259026
 20
231.34493861957512
 11
126.80756189324606
 21
231.72851744891932
  0
LINE
  8
_0-5_5-1実寸型
  6
CONTINUOUS
 62
    1
 10
126.80756189324606
 20
231.72851744891932
 11
129.33256170766435
 21
234.25351726333773
  0
LINE
  8
_0-5_5-1実寸型
  6
CONTINUOUS
 62
    1
 10
129.33256170766435
 20
234.25351726333773
 11
146.66687702504166
 21
234.25351726333773
  0
LINE
  8
_0-5_5-1実寸型
  6
CONTINUOUS
 62
    1
 10
146.66687702504166
 20
234.25351726333773
 11
149.19187683945987
 21
231.72851744891932
  0
LINE
  8
_0-5_5-1実寸型
  6
CONTINUOUS
 62
    1
 10
149.19187683945987
 20
231.72851744891932
 11
148.80829801011575
 21
231.34493861957523
  0
ARC
  8
_0-5_5-1実寸型
  6
CONTINUOUS
 62
    1
 10
148.94971936635307
 20
231.20351726333783
 40
0.2000000000000699
 50
134.9999999999942
 51
269.9999999999838
  0
LINE
  8
_0-5_5-1実寸型
  6
CONTINUOUS
 62
    1
 10
148.94971936635307
 20
231.00351726333773
 11
149.91687702504166
 21
231.00351726333784
  0
LINE
  8
_0-5_5-1実寸型
  6
CONTINUOUS
 62
    1
 10
149.91687702504166
 20
231.00351726333784
 11
150.10852730353227
 21
230.81186698484723
  0
LINE
  8
_0-3_2-1寸法
  6
CONTINUOUS
 62
    7
 10
137.74971936635296
 20
239.15351726333782
 11
137.74971936635296
 21
246.75351726333773
  0
LINE
  8
_0-3_2-1寸法
  6
CONTINUOUS
 62
    7
 10
60.24971936635302
 20
236.25351726333764
 11
60.24971936635302
 21
246.75351726333773
  0
LINE
  8
_0-3_2-1寸法
  6
CONTINUOUS
 62
    7
 10
136.74971936635296
 20
246.25351726333773
 11
61.24971936635302
 21
246.25351726333773
  0
INSERT
  2
-000-_Dot
  8
_0-3_2-1寸法
 10
137.74971936635296
 20
246.25351726333773
 41
0.5
 42
0.5
 50
0
  0
INSERT
  2
-000-_Dot
  8
_0-3_2-1寸法
 10
60.24971936635302
 20
246.25351726333773
 41
0.5
 42
0.5
 50
180
  0
TEXT
  8
_0-3_2-1寸法
 62
    7
 10
95.99971936635302
 20
246.87851726333773
 40
3
 41
1
 50
0
  1
77.5
  0
LINE
  8
_0-3_2-1寸法
  6
CONTINUOUS
 62
    7
 10
358.49971936635308
 20
236.25351726333753
 11
358.49971936635308
 21
244.20634145197184
  0
LINE
  8
_0-3_2-1寸法
  6
CONTINUOUS
 62
    7
 10
260.99971936635308
 20
236.25351726333753
 11
260.99971936635308
 21
244.20634145197184
  0
LINE
  8
_0-3_2-1寸法
  6
CONTINUOUS
 62
    7
 10
357.49971936635308
 20
243.70634145197184
 11
261.99971936635308
 21
243.70634145197184
  0
INSERT
  2
-000-_Dot
  8
_0-3_2-1寸法
 10
358.49971936635308
 20
243.70634145197184
 41
0.5
 42
0.5
 50
0
  0
INSERT
  2
-000-_Dot
  8
_0-3_2-1寸法
 10
260.99971936635308
 20
243.70634145197184
 41
0.5
 42
0.5
 50
180
  0
TEXT
  8
_0-3_2-1寸法
 62
    7
 10
306.74971936635308
 20
244.33134145197184
 40
3
 41
1
 50
0
  1
97.5
  0
LINE
  8
_0-5_5-1実寸型
  6
CONTINUOUS
 62
    1
 10
266.62691835507866
 20
162.38574343109053
 11
260.99971936635308
 21
233.25351726333753
  0
LINE
  8
_0-5_5-1実寸型
  6
CONTINUOUS
 62
    1
 10
260.99971936635308
 20
233.25351726333753
 11
325.63740486900826
 21
233.25351726333753
  0
LINE
  8
_0-5_5-1実寸型
  6
CONTINUOUS
 62
    1
 10
325.63740486900826
 20
233.25351726333753
 11
327.27740486900848
 21
236.20351726333763
  0
LINE
  8
_0-5_5-1実寸型
  6
CONTINUOUS
 62
    1
 10
327.27740486900848
 20
236.20351726333763
 11
344.68819642164294
 21
236.20351726333763
  0
LINE
  8
_0-5_5-1実寸型
  6
CONTINUOUS
 62
    1
 10
344.68819642164294
 20
236.20351726333763
 11
346.90819642164274
 21
233.25351726333753
  0
LINE
  8
_0-5_5-1実寸型
  6
CONTINUOUS
 62
    1
 10
346.90819642164274
 20
233.25351726333753
 11
358.49971936635308
 21
233.25351726333753
  0
LINE
  8
_0-5_5-1実寸型
  6
CONTINUOUS
 62
    1
 10
358.49971936635308
 20
233.25351726333753
 11
358.49971936635308
 21
231.75351726333753
  0
LINE
  8
_0-5_5-1実寸型
  6
CONTINUOUS
 62
    1
 10
358.49971936635308
 20
231.75351726333753
 11
346.15971936635304
 21
231.75351726333753
  0
LINE
  8
_0-5_5-1実寸型
  6
CONTINUOUS
 62
    1
 10
346.15971936635304
 20
231.75351726333753
 11
343.93971936635296
 21
234.70351726333763
  0
LINE
  8
_0-5_5-1実寸型
  6
CONTINUOUS
 62
    1
 10
343.93971936635296
 20
234.70351726333763
 11
328.15971936635304
 21
234.70351726333763
  0
LINE
  8
_0-5_5-1実寸型
  6
CONTINUOUS
 62
    1
 10
328.15971936635304
 20
234.70351726333763
 11
326.51971936635306
 21
231.75351726333753
  0
LINE
  8
_0-5_5-1実寸型
  6
CONTINUOUS
 62
    1
 10
326.51971936635306
 20
231.75351726333753
 11
262.62354700856133
 21
231.75351726333733
  0
LINE
  8
_0-5_5-1実寸型
  6
CONTINUOUS
 62
    1
 10
262.62354700856133
 20
231.75351726333733
 11
268.12221182909815
 21
162.50447601530814
  0
LINE
  8
_0-5_5-1実寸型
  6
CONTINUOUS
 62
    1
 10
268.12221182909815
 20
162.50447601530814
 11
266.62691835507866
 21
162.38574343109053
  0
LINE
  8
_0-6_6-1ハッチング
  6
CONTINUOUS
 62
    6
 10
259.78538658843536
 20
127.65832356628073
 11
260.23858161458253
 21
128.11151859242784
  0
LINE
  8
_0-6_6-1ハッチング
  6
CONTINUOUS
 62
    6
 10
259.85090622931284
 20
126.82581759505123
 11
261.13660722668948
 21
128.11151859242784
  0
LINE
  8
_0-6_6-1ハッチング
  6
CONTINUOUS
 62
    6
 10
259.91642587019027
 20
125.99331162382182
 11
262.03463283879648
 21
128.11151859242793
  0
LINE
  8
_0-6_6-1ハッチング
  6
CONTINUOUS
 62
    6
 10
259.98194551106775
 20
125.16080565259223
 11
262.93265845090326
 21
128.11151859242784
  0
LINE
  8
_0-6_6-1ハッチング
  6
CONTINUOUS
 62
    6
 10
260.04746515194518
 20
124.32829968136284
 11
263.83068406301027
 21
128.11151859242793
  0
LINE
  8
_0-6_6-1ハッチング
  6
CONTINUOUS
 62
    6
 10
260.11298479282254
 20
123.49579371013333
 11
261.97279866376886
 21
125.35560758107952
  0
LINE
  8
_0-6_6-1ハッチング
  6
CONTINUOUS
 62
    6
 10
262.72870967511727
 20
126.11151859242793
 11
264.72870967511705
 21
128.11151859242773
  0
LINE
  8
_0-6_6-1ハッチング
  6
CONTINUOUS
 62
    6
 10
260.17850443370008
 20
122.66328773890383
 11
262.03831830464617
 21
124.52310160985003
  0
LINE
  8
_0-6_6-1ハッチング
  6
CONTINUOUS
 62
    6
 10
263.62673528722428
 20
126.11151859242803
 11
265.62673528722405
 21
128.11151859242793
  0
LINE
  8
_0-6_6-1ハッチング
  6
CONTINUOUS
 62
    6
 10
260.24402407457757
 20
121.83078176767444
 11
262.10383794552376
 21
123.69059563862064
  0
LINE
  8
_0-6_6-1ハッチング
  6
CONTINUOUS
 62
    6
 10
264.52476089933117
 20
126.11151859242803
 11
266.52476089933106
 21
128.11151859242793
  0
LINE
  8
_0-6_6-1ハッチング
  6
CONTINUOUS
 62
    6
 10
260.30954371545494
 20
120.99827579644493
 11
262.16935758640108
 21
122.85808966739113
  0
LINE
  8
_0-6_6-1ハッチング
  6
CONTINUOUS
 62
    6
 10
265.42278651143806
 20
126.11151859242803
 11
267.42278651143806
 21
128.11151859242804
  0
LINE
  8
_0-6_6-1ハッチング
  6
CONTINUOUS
 62
    6
 10
260.37506335633236
 20
120.16576982521543
 11
262.23487722727856
 21
122.02558369616163
  0
LINE
  8
_0-6_6-1ハッチング
  6
CONTINUOUS
 62
    6
 10
266.32081212354495
 20
126.11151859242803
 11
268.32081212354478
 21
128.11151859242793
  0
LINE
  8
_0-6_6-1ハッチング
  6
CONTINUOUS
 62
    6
 10
260.44058299720984
 20
119.33326385398603
 11
262.30039686815604
 21
121.19307772493224
  0
LINE
  8
_0-6_6-1ハッチング
  6
CONTINUOUS
 62
    6
 10
267.21883773565185
 20
126.11151859242803
 11
269.21883773565173
 21
128.11151859242793
  0
LINE
  8
_0-6_6-1ハッチング
  6
CONTINUOUS
 62
    6
 10
260.50610263808738
 20
118.50075788275663
 11
262.36591650903347
 21
120.36057175370273
  0
LINE
  8
_0-6_6-1ハッチング
  6
CONTINUOUS
 62
    6
 10
268.11686334775874
 20
126.11151859242803
 11
270.11686334775874
 21
128.11151859242793
  0
LINE
  8
_0-6_6-1ハッチング
  6
CONTINUOUS
 62
    6
 10
260.57162227896475
 20
117.66825191152704
 11
262.43143614991106
 21
119.52806578247333
  0
LINE
  8
_0-6_6-1ハッチング
  6
CONTINUOUS
 62
    6
 10
269.01488895986563
 20
126.11151859242803
 11
271.01488895986557
 21
128.11151859242793
  0
LINE
  8
_0-6_6-1ハッチング
  6
CONTINUOUS
 62
    6
 10
260.63714191984218
 20
116.83574594029753
 11
262.49695579078843
 21
118.69555981124383
  0
LINE
  8
_0-6_6-1ハッチング
  6
CONTINUOUS
 62
    6
 10
269.91291457197264
 20
126.11151859242813
 11
271.91291457197258
 21
128.11151859242793
  0
LINE
  8
_0-6_6-1ハッチング
  6
CONTINUOUS
 62
    6
 10
260.70266156071966
 20
116.00323996906813
 11
262.56247543166575
 21
117.86305384001433
  0
LINE
  8
_0-6_6-1ハッチング
  6
CONTINUOUS
 62
    6
 10
270.81094018407958
 20
126.11151859242803
 11
272.81094018407947
 21
128.11151859242793
  0
LINE
  8
_0-6_6-1ハッチング
  6
CONTINUOUS
 62
    6
 10
260.76818120159703
 20
115.17073399783874
 11
262.62799507254334
 21
117.03054786878494
  0
LINE
  8
_0-6_6-1ハッチング
  6
CONTINUOUS
 62
    6
 10
271.70896579618653
 20
126.11151859242813
 11
273.70896579618636
 21
128.11151859242793
  0
LINE
  8
_0-6_6-1ハッチング
  6
CONTINUOUS
 62
    6
 10
260.83370084247457
 20
114.33822802660923
 11
262.69351471342077
 21
116.19804189755543
  0
LINE
  8
_0-6_6-1ハッチング
  6
CONTINUOUS
 62
    6
 10
272.60699140829337
 20
126.11151859242803
 11
274.60699140829325
 21
128.11151859242793
  0
LINE
  8
_0-6_6-1ハッチング
  6
CONTINUOUS
 62
    6
 10
260.89922048335194
 20
113.50572205537974
 11
262.75903435429814
 21
115.36553592632593
  0
LINE
  8
_0-6_6-1ハッチング
  6
CONTINUOUS
 62
    6
 10
273.50501702040037
 20
126.11151859242803
 11
275.50501702040015
 21
128.11151859242793
  0
LINE
  8
_0-6_6-1ハッチング
  6
CONTINUOUS
 62
    6
 10
260.96474012422948
 20
112.67321608415033
 11
262.82455399517568
 21
114.53302995509654
  0
LINE
  8
_0-6_6-1ハッチング
  6
CONTINUOUS
 62
    6
 10
274.40304263250715
 20
126.11151859242803
 11
276.40304263250715
 21
128.11151859242793
  0
LINE
  8
_0-6_6-1ハッチング
  6
CONTINUOUS
 62
    6
 10
261.03025976510708
 20
111.84071011292083
 11
262.89007363605316
 21
113.70052398386703
  0
LINE
  8
_0-6_6-1ハッチング
  6
CONTINUOUS
 62
    6
 10
275.30106824461404
 20
126.11151859242803
 11
277.30106824461404
 21
128.11151859242793
  0
LINE
  8
_0-6_6-1ハッチング
  6
CONTINUOUS
 62
    6
 10
261.09577940598433
 20
111.00820414169144
 11
262.95559327693053
 21
112.86801801263753
  0
LINE
  8
_0-6_6-1ハッチング
  6
CONTINUOUS
 62
    6
 10
276.19909385672105
 20
126.11151859242803
 11
278.19909385672088
 21
128.11151859242793
  0
LINE
  8
_0-6_6-1ハッチング
  6
CONTINUOUS
 62
    6
 10
261.16129904686187
 20
110.17569817046193
 11
263.02111291780807
 21
112.03551204140813
  0
LINE
  8
_0-6_6-1ハッチング
  6
CONTINUOUS
 62
    6
 10
277.09711946882794
 20
126.11151859242803
 11
279.09711946882788
 21
128.11151859242793
  0
LINE
  8
_0-6_6-1ハッチング
  6
CONTINUOUS
 62
    6
 10
261.22681868773935
 20
109.34319219923253
 11
263.08663255868538
 21
111.20300607017863
  0
LINE
  8
_0-6_6-1ハッチング
  6
CONTINUOUS
 62
    6
 10
277.99514508093483
 20
126.11151859242803
 11
279.99514508093478
 21
128.11151859242793
  0
LINE
  8
_0-6_6-1ハッチング
  6
CONTINUOUS
 62
    6
 10
261.29233832861678
 20
108.51068622800302
 11
263.15215219956286
 21
110.37050009894914
  0
LINE
  8
_0-6_6-1ハッチング
  6
CONTINUOUS
 62
    6
 10
278.89317069304178
 20
126.11151859242803
 11
280.89317069304167
 21
128.11151859242793
  0
LINE
  8
_0-6_6-1ハッチング
  6
CONTINUOUS
 62
    6
 10
261.35785796949426
 20
107.67818025677353
 11
263.21767184044035
 21
109.53799412771973
  0
LINE
  8
_0-6_6-1ハッチング
  6
CONTINUOUS
 62
    6
 10
279.79119630514867
 20
126.11151859242803
 11
281.79119630514856
 21
128.11151859242793
  0
LINE
  8
_0-6_6-1ハッチング
  6
CONTINUOUS
 62
    6
 10
261.42337761037163
 20
106.84567428554404
 11
263.28319148131777
 21
108.70548815649013
  0
LINE
  8
_0-6_6-1ハッチング
  6
CONTINUOUS
 62
    6
 10
280.68922191725568
 20
126.11151859242803
 11
282.68922191725545
 21
128.11151859242784
  0
LINE
  8
_0-6_6-1ハッチング
  6
CONTINUOUS
 62
    6
 10
261.48889725124906
 20
106.01316831431463
 11
263.34871112219514
 21
107.87298218526072
  0
LINE
  8
_0-6_6-1ハッチング
  6
CONTINUOUS
 62
    6
 10
281.58724752936246
 20
126.11151859242803
 11
283.58724752936234
 21
128.11151859242793
  0
LINE
  8
_0-6_6-1ハッチング
  6
CONTINUOUS
 62
    6
 10
261.55441689212654
 20
105.18066234308513
 11
263.41423076307268
 21
107.04047621403123
  0
LINE
  8
_0-6_6-1ハッチング
  6
CONTINUOUS
 62
    6
 10
282.48527314146935
 20
126.11151859242803
 11
284.48527314146924
 21
128.11151859242784
  0
LINE
  8
_0-6_6-1ハッチング
  6
CONTINUOUS
 62
    6
 10
261.61993653300397
 20
104.34815637185564
 11
263.47975040395005
 21
106.20797024280174
  0
LINE
  8
_0-6_6-1ハッチング
  6
CONTINUOUS
 62
    6
 10
283.38329875357624
 20
126.11151859242793
 11
285.38329875357624
 21
128.11151859242793
  0
LINE
  8
_0-6_6-1ハッチング
  6
CONTINUOUS
 62
    6
 10
261.68545617388133
 20
103.51565040062623
 11
263.54527004482753
 21
105.37546427157233
  0
LINE
  8
_0-6_6-1ハッチング
  6
CONTINUOUS
 62
    6
 10
284.28132436568325
 20
126.11151859242803
 11
286.28132436568308
 21
128.11151859242784
  0
LINE
  8
_0-6_6-1ハッチング
  6
CONTINUOUS
 62
    6
 10
261.75097581475887
 20
102.68314442939673
 11
263.61078968570496
 21
104.54295830034283
  0
LINE
  8
_0-6_6-1ハッチング
  6
CONTINUOUS
 62
    6
 10
285.17934997779014
 20
126.11151859242803
 11
287.17934997778997
 21
128.11151859242793
  0
LINE
  8
_0-6_6-1ハッチング
  6
CONTINUOUS
 62
    6
 10
261.81649545563624
 20
101.85063845816723
 11
263.67630932658244
 21
103.71045232911334
  0
LINE
  8
_0-6_6-1ハッチング
  6
CONTINUOUS
 62
    6
 10
286.07737558989703
 20
126.11151859242793
 11
288.07737558989697
 21
128.11151859242793
  0
LINE
  8
_0-6_6-1ハッチング
  6
CONTINUOUS
 62
    6
 10
261.88201509651367
 20
101.01813248693773
 11
263.74182896745987
 21
102.87794635788383
  0
LINE
  8
_0-6_6-1ハッチング
  6
CONTINUOUS
 62
    6
 10
286.97540120200398
 20
126.11151859242803
 11
288.97540120200387
 21
128.11151859242793
  0
LINE
  8
_0-6_6-1ハッチング
  6
CONTINUOUS
 62
    6
 10
261.94753473739115
 20
100.18562651570834
 11
263.80734860833724
 21
102.04544038665443
  0
LINE
  8
_0-6_6-1ハッチング
  6
CONTINUOUS
 62
    6
 10
287.87342681411093
 20
126.11151859242803
 11
289.87342681411076
 21
128.11151859242793
  0
LINE
  8
_0-6_6-1ハッチング
  6
CONTINUOUS
 62
    6
 10
262.01305437826863
 20
99.353120544478855
 11
263.87286824921478
 21
101.21293441542493
  0
LINE
  8
_0-6_6-1ハッチング
  6
CONTINUOUS
 62
    6
 10
288.77145242621793
 20
126.11151859242813
 11
290.77145242621765
 21
128.11151859242793
  0
LINE
  8
_0-6_6-1ハッチング
  6
CONTINUOUS
 62
    6
 10
262.07857401914606
 20
98.520614573249347
 11
263.93838789009226
 21
100.38042844419543
  0
LINE
  8
_0-6_6-1ハッチング
  6
CONTINUOUS
 62
    6
 10
289.43745305071093
 20
125.87949360481413
 11
291.66947803832477
 21
128.11151859242793
  0
LINE
  8
_0-6_6-1ハッチング
  6
CONTINUOUS
 62
    6
 10
262.14409366002354
 20
97.688108602019938
 11
264.00390753096968
 21
99.547922472966064
  0
LINE
  8
_0-6_6-1ハッチング
  6
CONTINUOUS
 62
    6
 10
290.56750365043155
 20
126.11151859242793
 11
292.56750365043155
 21
128.11151859242793
  0
LINE
  8
_0-6_6-1ハッチング
  6
CONTINUOUS
 62
    6
 10
262.20961330090097
 20
96.855602630790457
 11
264.06942717184705
 21
98.715416501736541
  0
LINE
  8
_0-6_6-1ハッチング
  6
CONTINUOUS
 62
    6
 10
291.46552926253844
 20
126.11151859242793
 11
293.46552926253844
 21
128.11151859242793
  0
LINE
  8
_0-6_6-1ハッチング
  6
CONTINUOUS
 62
    6
 10
262.27513294177834
 20
96.023096659560935
 11
264.13494681272454
 21
97.882910530507075
  0
LINE
  8
_0-6_6-1ハッチング
  6
CONTINUOUS
 62
    6
 10
292.36355487464556
 20
126.11151859242803
 11
294.36355487464544
 21
128.11151859242793
  0
LINE
  8
_0-6_6-1ハッチング
  6
CONTINUOUS
 62
    6
 10
262.34065258265588
 20
95.190590688331469
 11
264.20046645360208
 21
97.050404559277609
  0
LINE
  8
_0-6_6-1ハッチング
  6
CONTINUOUS
 62
    6
 10
293.26158048675256
 20
126.11151859242803
 11
295.26158048675228
 21
128.11151859242793
  0
LINE
  8
_0-6_6-1ハッチング
  6
CONTINUOUS
 62
    6
 10
262.40617222353325
 20
94.358084717101988
 11
264.26598609447933
 21
96.217898588048158
  0
LINE
  8
_0-6_6-1ハッチング
  6
CONTINUOUS
 62
    6
 10
294.15960609885934
 20
126.11151859242803
 11
296.15960609885923
 21
128.11151859242793
  0
LINE
  8
_0-6_6-1ハッチング
  6
CONTINUOUS
 62
    6
 10
262.47169186441073
 20
93.525578745872537
 11
264.33150573535687
 21
95.385392616818677
  0
LINE
  8
_0-6_6-1ハッチング
  6
CONTINUOUS
 62
    6
 10
294.61230952895204
 20
125.66619641041383
 11
297.05763171096618
 21
128.11151859242793
  0
LINE
  8
_0-6_6-1ハッチング
  6
CONTINUOUS
 62
    6
 10
262.53721150528827
 20
92.69307277464307
 11
264.39702537623424
 21
94.552886645589155
  0
LINE
  8
_0-6_6-1ハッチング
  6
CONTINUOUS
 62
    6
 10
295.95565732307307
 20
126.11151859242793
 11
297.95565732307307
 21
128.11151859242793
  0
LINE
  8
_0-6_6-1ハッチング
  6
CONTINUOUS
 62
    6
 10
262.60273114616558
 20
91.860566803413604
 11
264.46254501711178
 21
93.720380674359745
  0
LINE
  8
_0-6_6-1ハッチング
  6
CONTINUOUS
 62
    6
 10
296.85368293517985
 20
126.11151859242793
 11
298.85368293517996
 21
128.11151859242793
  0
LINE
  8
_0-6_6-1ハッチング
  6
CONTINUOUS
 62
    6
 10
262.66825078704306
 20
91.028060832184138
 11
264.52806465798926
 21
92.887874703130279
  0
LINE
  8
_0-6_6-1ハッチング
  6
CONTINUOUS
 62
    6
 10
297.75170854728708
 20
126.11151859242803
 11
299.75170854728685
 21
128.11151859242793
  0
LINE
  8
_0-6_6-1ハッチング
  6
CONTINUOUS
 62
    6
 10
262.73377042792043
 20
90.195554860954616
 11
264.59358429886663
 21
92.055368731900757
  0
LINE
  8
_0-6_6-1ハッチング
  6
CONTINUOUS
 62
    6
 10
298.64973415939403
 20
126.11151859242813
 11
300.64973415939374
 21
128.11151859242793
  0
LINE
  8
_0-6_6-1ハッチング
  6
CONTINUOUS
 62
    6
 10
262.79929006879786
 20
89.36304888972515
 11
264.65910393974406
 21
91.222862760671291
  0
LINE
  8
_0-6_6-1ハッチング
  6
CONTINUOUS
 62
    6
 10
299.38301553646693
 20
125.94677435739413
 11
301.54775977150064
 21
128.11151859242784
  0
LINE
  8
_0-6_6-1ハッチング
  6
CONTINUOUS
 62
    6
 10
262.86480970967546
 20
88.53054291849574
 11
264.72462358062148
 21
90.390356789441825
  0
LINE
  8
_0-6_6-1ハッチング
  6
CONTINUOUS
 62
    6
 10
300.44578538360764
 20
126.11151859242793
 11
302.44578538360753
 21
128.11151859242793
  0
LINE
  8
_0-6_6-1ハッチング
  6
CONTINUOUS
 62
    6
 10
262.93032935055288
 20
87.698036947266218
 11
264.79014322149897
 21
89.557850818212358
  0
LINE
  8
_0-6_6-1ハッチング
  6
CONTINUOUS
 62
    6
 10
301.34381099571465
 20
126.11151859242803
 11
303.34381099571453
 21
128.11151859242793
  0
LINE
  8
_0-6_6-1ハッチング
  6
CONTINUOUS
 62
    6
 10
262.99584899143025
 20
86.865530976036808
 11
264.85566286237645
 21
88.725344846982949
  0
LINE
  8
_0-6_6-1ハッチング
  6
CONTINUOUS
 62
    6
 10
302.24183660782154
 20
126.11151859242803
 11
304.24183660782148
 21
128.11151859242793
  0
LINE
  8
_0-6_6-1ハッチング
  6
CONTINUOUS
 62
    6
 10
263.06136863230768
 20
86.033025004807286
 11
264.92118250325387
 21
87.892838875753426
  0
LINE
  8
_0-6_6-1ハッチング
  6
CONTINUOUS
 62
    6
 10
303.13986221992855
 20
126.11151859242813
 11
305.13986221992837
 21
128.11151859242793
  0
LINE
  8
_0-6_6-1ハッチング
  6
CONTINUOUS
 62
    6
 10
263.12688827318516
 20
85.20051903357782
 11
264.98670214413124
 21
87.06033290452396
  0
LINE
  8
_0-6_6-1ハッチング
  6
CONTINUOUS
 62
    6
 10
304.03788783203555
 20
126.11151859242813
 11
306.03788783203527
 21
128.11151859242784
  0
LINE
  8
_0-6_6-1ハッチング
  6
CONTINUOUS
 62
    6
 10
263.19240791406264
 20
84.368013062348354
 11
265.05222178500878
 21
86.227826933294438
  0
LINE
  8
_0-6_6-1ハッチング
  6
CONTINUOUS
 62
    6
 10
304.55661413949207
 20
125.73221928777774
 11
306.93591344414216
 21
128.11151859242784
  0
LINE
  8
_0-6_6-1ハッチング
  6
CONTINUOUS
 62
    6
 10
263.25792755494018
 20
83.535507091118944
 11
265.11774142588627
 21
85.395320962065028
  0
LINE
  8
_0-6_6-1ハッチング
  6
CONTINUOUS
 62
    6
 10
305.83393905624894
 20
126.11151859242783
 11
307.83393905624916
 21
128.11151859242784
  0
LINE
  8
_0-6_6-1ハッチング
  6
CONTINUOUS
 62
    6
 10
263.32344719581744
 20
82.703001119889407
 11
265.18326106676363
 21
84.562814990835619
  0
LINE
  8
_0-6_6-1ハッチング
  6
CONTINUOUS
 62
    6
 10
306.73196466835617
 20
126.11151859242803
 11
308.73196466835606
 21
128.11151859242793
  0
LINE
  8
_0-6_6-1ハッチング
  6
CONTINUOUS
 62
    6
 10
263.38896683669498
 20
81.870495148659899
 11
265.24878070764106
 21
83.73030901960604
  0
LINE
  8
_0-6_6-1ハッチング
  6
CONTINUOUS
 62
    6
 10
307.62999028046318
 20
126.11151859242813
 11
309.62999028046295
 21
128.11151859242793
  0
LINE
  8
_0-6_6-1ハッチング
  6
CONTINUOUS
 62
    6
 10
263.45448647757246
 20
81.037989177430546
 11
265.31430034851854
 21
82.897803048376687
  0
LINE
  8
_0-6_6-1ハッチング
  6
CONTINUOUS
 62
    6
 10
308.52801589257007
 20
126.11151859242813
 11
310.52801589256984
 21
128.11151859242793
  0
LINE
  8
_0-6_6-1ハッチング
  6
CONTINUOUS
 62
    6
 10
263.52000611844983
 20
80.20548320620108
 11
265.37981998939608
 21
82.065297077147221
  0
LINE
  8
_0-6_6-1ハッチング
  6
CONTINUOUS
 62
    6
 10
309.32857802222287
 20
126.01405510997404
 11
311.42604150467673
 21
128.11151859242793
  0
LINE
  8
_0-6_6-1ハッチング
  6
CONTINUOUS
 62
    6
 10
263.58552575932737
 20
79.372977234971614
 11
265.44533963027345
 21
81.232791105917698
  0
LINE
  8
_0-6_6-1ハッチング
  6
CONTINUOUS
 62
    6
 10
310.32406711678357
 20
126.11151859242783
 11
312.32406711678368
 21
128.11151859242793
  0
LINE
  8
_0-6_6-1ハッチング
  6
CONTINUOUS
 62
    6
 10
309.85249370729264
 20
125.63994518293683
 11
309.93458804065398
 21
125.72203951629812
  0
LINE
  8
_0-6_6-1ハッチング
  6
CONTINUOUS
 62
    6
 10
263.65104540020485
 20
78.540471263742091
 11
265.51085927115093
 21
80.400285134688218
  0
LINE
  8
_0-6_6-1ハッチング
  6
CONTINUOUS
 62
    6
 10
311.22209272889063
 20
126.11151859242793
 11
313.22209272889063
 21
128.11151859242793
  0
LINE
  8
_0-6_6-1ハッチング
  6
CONTINUOUS
 62
    6
 10
263.71656504108228
 20
77.707965292512625
 11
265.57637891202836
 21
79.567779163458766
  0
LINE
  8
_0-6_6-1ハッチング
  6
CONTINUOUS
 62
    6
 10
312.12011834099758
 20
126.11151859242793
 11
314.12011834099764
 21
128.11151859242793
  0
LINE
  8
_0-6_6-1ハッチング
  6
CONTINUOUS
 62
    6
 10
263.78208468195965
 20
76.875459321283159
 11
265.64189855290573
 21
78.7352731922293
  0
LINE
  8
_0-6_6-1ハッチング
  6
CONTINUOUS
 62
    6
 10
313.01814395310464
 20
126.11151859242813
 11
315.01814395310447
 21
128.11151859242793
  0
LINE
  8
_0-6_6-1ハッチング
  6
CONTINUOUS
 62
    6
 10
263.84760432283713
 20
76.042953350053693
 11
265.70741819378338
 21
77.902767220999891
  0
LINE
  8
_0-6_6-1ハッチング
  6
CONTINUOUS
 62
    6
 10
313.91616956521153
 20
126.11151859242803
 11
315.91616956521148
 21
128.11151859242793
  0
LINE
  8
_0-6_6-1ハッチング
  6
CONTINUOUS
 62
    6
 10
263.91312396371455
 20
75.210447378824284
 11
265.77293783466064
 21
77.070261249770368
  0
LINE
  8
_0-6_6-1ハッチング
  6
CONTINUOUS
 62
    6
 10
314.50217662524818
 20
125.79950004035793
 11
316.81419517731825
 21
128.11151859242793
  0
LINE
  8
_0-6_6-1ハッチング
  6
CONTINUOUS
 62
    6
 10
263.97864360459204
 20
74.377941407594875
 11
265.83845747553818
 21
76.237755278540945
  0
LINE
  8
_0-6_6-1ハッチング
  6
CONTINUOUS
 62
    6
 10
315.71222078942526
 20
126.11151859242793
 11
317.71222078942526
 21
128.11151859242793
  0
LINE
  8
_0-6_6-1ハッチング
  6
CONTINUOUS
 62
    6
 10
264.04416324546958
 20
73.545435436365352
 11
265.90397711641566
 21
75.405249307311493
  0
LINE
  8
_0-6_6-1ハッチング
  6
CONTINUOUS
 62
    6
 10
316.61024640153215
 20
126.11151859242793
 11
318.61024640153215
 21
128.11151859242793
  0
LINE
  8
_0-6_6-1ハッチング
  6
CONTINUOUS
 62
    6
 10
264.10968288634695
 20
72.712929465135886
 11
265.96949675729314
 21
74.572743336082027
  0
LINE
  8
_0-6_6-1ハッチング
  6
CONTINUOUS
 62
    6
 10
317.50827201363904
 20
126.11151859242793
 11
319.50827201363904
 21
128.11151859242793
  0
LINE
  8
_0-6_6-1ハッチング
  6
CONTINUOUS
 62
    6
 10
264.17520252722437
 20
71.88042349390642
 11
266.03501639817057
 21
73.740237364852561
  0
LINE
  8
_0-6_6-1ハッチング
  6
CONTINUOUS
 62
    6
 10
318.40629762574588
 20
126.11151859242793
 11
320.40629762574594
 21
128.11151859242793
  0
LINE
  8
_0-6_6-1ハッチング
  6
CONTINUOUS
 62
    6
 10
264.24072216810185
 20
71.047917522676954
 11
266.10053603904794
 21
72.907731393623095
  0
LINE
  8
_0-6_6-1ハッチング
  6
CONTINUOUS
 62
    6
 10
319.27414050797887
 20
126.08133586255393
 11
321.30432323785288
 21
128.11151859242793
  0
LINE
  8
_0-6_6-1ハッチング
  6
CONTINUOUS
 62
    6
 10
264.30624180897934
 20
70.215411551447488
 11
266.16605567992536
 21
72.075225422393459
  0
LINE
  8
_0-6_6-1ハッチング
  6
CONTINUOUS
 62
    6
 10
319.70697084688993
 20
125.61614058935803
 11
322.20234884995978
 21
128.11151859242793
  0
LINE
  8
_0-6_6-1ハッチング
  6
CONTINUOUS
 62
    6
 10
264.37176144985676
 20
69.382905580218022
 11
266.23157532080285
 21
71.242719451164106
  0
LINE
  8
_0-6_6-1ハッチング
  6
CONTINUOUS
 62
    6
 10
321.10037446206667
 20
126.11151859242793
 11
323.10037446206667
 21
128.11151859242793
  0
LINE
  8
_0-6_6-1ハッチング
  6
CONTINUOUS
 62
    6
 10
264.43728109073413
 20
68.550399608988556
 11
266.29709496168016
 21
70.410213479934527
  0
LINE
  8
_0-6_6-1ハッチング
  6
CONTINUOUS
 62
    6
 10
321.99840007417356
 20
126.11151859242793
 11
323.99840007417356
 21
128.11151859242793
  0
LINE
  8
_0-6_6-1ハッチング
  6
CONTINUOUS
 62
    6
 10
264.50280073161156
 20
67.717893637759033
 11
266.36261460255758
 21
69.577707508705004
  0
LINE
  8
_0-6_6-1ハッチング
  6
CONTINUOUS
 62
    6
 10
322.89642568628068
 20
126.11151859242803
 11
327.89642568628068
 21
131.11151859242804
  0
LINE
  8
_0-6_6-1ハッチング
  6
CONTINUOUS
 62
    6
 10
264.56832037248904
 20
66.885387666529567
 11
266.42813424343507
 21
68.745201537475594
  0
LINE
  8
_0-6_6-1ハッチング
  6
CONTINUOUS
 62
    6
 10
323.79445129838757
 20
126.11151859242803
 11
328.79445129838768
 21
131.11151859242804
  0
LINE
  8
_0-6_6-1ハッチング
  6
CONTINUOUS
 62
    6
 10
264.63384001336658
 20
66.052881695300158
 11
266.49365388431255
 21
67.912695566246185
  0
LINE
  8
_0-6_6-1ハッチング
  6
CONTINUOUS
 62
    6
 10
324.45345799433744
 20
125.87249967627103
 11
329.69247691049446
 21
131.11151859242804
  0
LINE
  8
_0-6_6-1ハッチング
  6
CONTINUOUS
 62
    6
 10
264.69935965424395
 20
65.220375724070635
 11
266.55917352519003
 21
67.080189595016719
  0
LINE
  8
_0-6_6-1ハッチング
  6
CONTINUOUS
 62
    6
 10
325.34050252260147
 20
125.86151859242803
 11
330.59050252260147
 21
131.11151859242804
  0
LINE
  8
_0-6_6-1ハッチング
  6
CONTINUOUS
 62
    6
 10
264.76487929512143
 20
64.387869752841169
 11
266.62469316606746
 21
66.247683623787196
  0
LINE
  8
_0-6_6-1ハッチング
  6
CONTINUOUS
 62
    6
 10
329.48852813470836
 20
129.11151859242804
 11
331.48852813470836
 21
131.11151859242804
  0
LINE
  8
_0-6_6-1ハッチング
  6
CONTINUOUS
 62
    6
 10
326.23852813470853
 20
125.86151859242823
 11
326.63554510676806
 21
126.25853556448773
  0
LINE
  8
_0-6_6-1ハッチング
  6
CONTINUOUS
 62
    6
 10
264.83039893599886
 20
63.555363781611703
 11
266.69021280694483
 21
65.415177652557787
  0
LINE
  8
_0-6_6-1ハッチング
  6
CONTINUOUS
 62
    6
 10
330.38655374681525
 20
129.11151859242804
 11
332.38655374681525
 21
131.11151859242804
  0
LINE
  8
_0-6_6-1ハッチング
  6
CONTINUOUS
 62
    6
 10
264.89591857687628
 20
62.722857810382237
 11
266.75573244782248
 21
64.582671681328378
  0
LINE
  8
_0-6_6-1ハッチング
  6
CONTINUOUS
 62
    6
 10
331.28457935892214
 20
129.11151859242804
 11
333.28457935892203
 21
131.11151859242804
  0
LINE
  8
_0-6_6-1ハッチング
  6
CONTINUOUS
 62
    6
 10
264.96143821775377
 20
61.890351839152771
 11
266.82125208869974
 21
63.750165710098798
  0
LINE
  8
_0-6_6-1ハッチング
  6
CONTINUOUS
 62
    6
 10
332.18260497102904
 20
129.11151859242804
 11
334.18260497102904
 21
131.11151859242804
  0
LINE
  8
_0-6_6-1ハッチング
  6
CONTINUOUS
 62
    6
 10
265.02695785863114
 20
61.057845867923248
 11
266.88677172957716
 21
62.917659738869332
  0
LINE
  8
_0-6_6-1ハッチング
  6
CONTINUOUS
 62
    6
 10
333.08063058313604
 20
129.11151859242804
 11
335.08063058313593
 21
131.11151859242804
  0
LINE
  8
_0-6_6-1ハッチング
  6
CONTINUOUS
 62
    6
 10
265.09247749950856
 20
60.225339896693839
 11
266.95229137045476
 21
62.08515376763998
  0
LINE
  8
_0-6_6-1ハッチング
  6
CONTINUOUS
 62
    6
 10
333.97865619524288
 20
129.11151859242804
 11
335.97865619524288
 21
131.11151859242804
  0
LINE
  8
_0-6_6-1ハッチング
  6
CONTINUOUS
 62
    6
 10
265.15799714038604
 20
59.392833925464316
 11
267.01781101133213
 21
61.252647796410457
  0
LINE
  8
_0-6_6-1ハッチング
  6
CONTINUOUS
 62
    6
 10
334.87668180734988
 20
129.11151859242804
 11
336.87668180734977
 21
131.11151859242793
  0
LINE
  8
_0-6_6-1ハッチング
  6
CONTINUOUS
 62
    6
 10
265.22351678126358
 20
58.56032795423485
 11
267.08333065220967
 21
60.420141825180991
  0
LINE
  8
_0-6_6-1ハッチング
  6
CONTINUOUS
 62
    6
 10
335.77470741945677
 20
129.11151859242804
 11
337.77470741945666
 21
131.11151859242793
  0
LINE
  8
_0-6_6-1ハッチング
  6
CONTINUOUS
 62
    6
 10
265.28903642214095
 20
57.727821983005441
 11
267.14885029308704
 21
59.587635853951525
  0
LINE
  8
_0-6_6-1ハッチング
  6
CONTINUOUS
 62
    6
 10
336.67273303156367
 20
129.11151859242813
 11
338.67273303156355
 21
131.11151859242804
  0
LINE
  8
_0-6_6-1ハッチング
  6
CONTINUOUS
 62
    6
 10
265.35455606301838
 20
56.895316011775918
 11
267.21436993396458
 21
58.755129882722059
  0
LINE
  8
_0-6_6-1ハッチング
  6
CONTINUOUS
 62
    6
 10
337.57075864367044
 20
129.11151859242804
 11
339.57075864367044
 21
131.11151859242804
  0
LINE
  8
_0-6_6-1ハッチング
  6
CONTINUOUS
 62
    6
 10
265.42007570389586
 20
56.062810040546452
 11
267.27988957484195
 21
57.922623911492593
  0
LINE
  8
_0-6_6-1ハッチング
  6
CONTINUOUS
 62
    6
 10
338.46878425577756
 20
129.11151859242813
 11
340.46878425577745
 21
131.11151859242804
  0
LINE
  8
_0-6_6-1ハッチング
  6
CONTINUOUS
 62
    6
 10
265.48559534477323
 20
55.230304069316929
 11
267.34540921571937
 21
57.09011794026307
  0
LINE
  8
_0-6_6-1ハッチング
  6
CONTINUOUS
 62
    6
 10
339.36680986788446
 20
129.11151859242813
 11
341.36680986788423
 21
131.11151859242793
  0
LINE
  8
_0-6_6-1ハッチング
  6
CONTINUOUS
 62
    6
 10
265.55111498565077
 20
54.39779809808752
 11
267.41092885659685
 21
56.257611969033661
  0
LINE
  8
_0-6_6-1ハッチング
  6
CONTINUOUS
 62
    6
 10
340.26483547999123
 20
129.11151859242804
 11
342.26483547999118
 21
131.11151859242793
  0
LINE
  8
_0-6_6-1ハッチング
  6
CONTINUOUS
 62
    6
 10
265.61663462652814
 20
53.565292126858054
 11
267.47644849747428
 21
55.425105997804138
  0
LINE
  8
_0-6_6-1ハッチング
  6
CONTINUOUS
 62
    6
 10
341.16286109209824
 20
129.11151859242804
 11
343.16286109209818
 21
131.11151859242793
  0
LINE
  8
_0-6_6-1ハッチング
  6
CONTINUOUS
 62
    6
 10
265.68215426740556
 20
52.732786155628531
 11
267.54196813835176
 21
54.592600026574672
  0
LINE
  8
_0-6_6-1ハッチング
  6
CONTINUOUS
 62
    6
 10
342.06088670420513
 20
129.11151859242804
 11
344.06088670420507
 21
131.11151859242793
  0
LINE
  8
_0-6_6-1ハッチング
  6
CONTINUOUS
 62
    6
 10
265.74767390828305
 20
51.900280184399122
 11
268.41181102694264
 21
54.564417303058718
  0
LINE
  8
_0-6_6-1ハッチング
  6
CONTINUOUS
 62
    6
 10
342.95891231631208
 20
129.11151859242813
 11
344.95891231631197
 21
131.11151859242804
  0
LINE
  8
_0-6_6-1ハッチング
  6
CONTINUOUS
 62
    6
 10
265.81319354916047
 20
51.067774213169599
 11
267.67300742010673
 21
52.927588084115911
  0
LINE
  8
_0-6_6-1ハッチング
  6
CONTINUOUS
 62
    6
 10
343.85693792841903
 20
129.11151859242813
 11
345.85693792841886
 21
131.11151859242804
  0
LINE
  8
_0-6_6-1ハッチング
  6
CONTINUOUS
 62
    6
 10
268.29776915021915
 20
53.552349814228336
 11
269.38655028214276
 21
54.64113094615189
  0
LINE
  8
_0-6_6-1ハッチング
  6
CONTINUOUS
 62
    6
 10
265.87871319003796
 20
50.235268241940133
 11
267.73852706098427
 21
52.095082112886445
  0
LINE
  8
_0-6_6-1ハッチング
  6
CONTINUOUS
 62
    6
 10
344.75496354052586
 20
129.11151859242804
 11
346.75496354052586
 21
131.11151859242804
  0
LINE
  8
_0-6_6-1ハッチング
  6
CONTINUOUS
 62
    6
 10
269.27250840541927
 20
53.62906345732145
 11
270.36128953734294
 21
54.717844589245118
  0
LINE
  8
_0-6_6-1ハッチング
  6
CONTINUOUS
 62
    6
 10
265.94423283091538
 20
49.402762270710724
 11
267.80404670186164
 21
51.262576141656979
  0
LINE
  8
_0-6_6-1ハッチング
  6
CONTINUOUS
 62
    6
 10
345.65298915263276
 20
129.11151859242804
 11
347.43302381466214
 21
130.89155325445742
  0
LINE
  8
_0-6_6-1ハッチング
  6
CONTINUOUS
 62
    6
 10
270.24724766061945
 20
53.705777100414792
 11
271.33602879254306
 21
54.794558232338346
  0
LINE
  8
_0-6_6-1ハッチング
  6
CONTINUOUS
 62
    6
 10
266.00975247179275
 20
48.570256299481201
 11
267.86956634273918
 21
50.430070170427513
  0
LINE
  8
_0-6_6-1ハッチング
  6
CONTINUOUS
 62
    6
 10
346.35894589489084
 20
128.91944972257923
 11
347.84121727471063
 21
130.40172110239902
  0
LINE
  8
_0-6_6-1ハッチング
  6
CONTINUOUS
 62
    6
 10
271.22198691581968
 20
53.782490743508021
 11
272.31076804774318
 21
54.871271875431574
  0
LINE
  8
_0-6_6-1ハッチング
  6
CONTINUOUS
 62
    6
 10
266.75282051140118
 20
48.41529872698257
 11
267.93508598361655
 21
49.59756419919799
  0
LINE
  8
_0-6_6-1ハッチング
  6
CONTINUOUS
 62
    6
 10
346.80795870094425
 20
128.47043691652573
 11
348.24941073475924
 21
129.91188895034063
  0
LINE
  8
_0-6_6-1ハッチング
  6
CONTINUOUS
 62
    6
 10
272.19672617101963
 20
53.859204386601135
 11
273.28550730294324
 21
54.947985518524689
  0
LINE
  8
_0-6_6-1ハッチング
  6
CONTINUOUS
 62
    6
 10
267.72755976660125
 20
48.492012370075798
 11
268.00060562449397
 21
48.765058227968581
  0
LINE
  8
_0-6_6-1ハッチング
  6
CONTINUOUS
 62
    6
 10
347.25697150699773
 20
128.02142411047234
 11
348.65760419480785
 21
129.42205679828243
  0
LINE
  8
_0-6_6-1ハッチング
  6
CONTINUOUS
 62
    6
 10
273.17146542621987
 20
53.93591802969442
 11
274.26024655814336
 21
55.024699161617917
  0
LINE
  8
_0-6_6-1ハッチング
  6
CONTINUOUS
 62
    6
 10
274.14620468141993
 20
54.012631672787649
 11
275.23498581334343
 21
55.101412804711146
  0
LINE
  8
_0-6_6-1ハッチング
  6
CONTINUOUS
 62
    6
 10
347.70598431305103
 20
127.57241130441874
 11
349.06579765485657
 21
128.93222464622414
  0
LINE
  8
_0-6_6-1ハッチング
  6
CONTINUOUS
 62
    6
 10
275.12094393662005
 20
54.089345315880763
 11
275.57090039003327
 21
54.539301769293985
  0
LINE
  8
_0-6_6-1ハッチング
  6
CONTINUOUS
 62
    6
 10
348.15499711910456
 20
127.12339849836523
 11
349.47399111490506
 21
128.44239249416574
  0
LINE
  8
_0-6_6-1ハッチング
  6
CONTINUOUS
 62
    6
 10
348.60400992515798
 20
126.67438569231173
 11
350.04114282527416
 21
128.11151859242793
  0
LINE
  8
_0-6_6-1ハッチング
  6
CONTINUOUS
 62
    6
 10
348.68916843738117
 20
125.86151859242803
 11
350.93916843738094
 21
128.11151859242784
  0
LINE
  8
_0-6_6-1ハッチング
  6
CONTINUOUS
 62
    6
 10
349.55013871703505
 20
125.82446325997503
 11
351.83719404948806
 21
128.11151859242793
  0
LINE
  8
_0-6_6-1ハッチング
  6
CONTINUOUS
 62
    6
 10
350.73521966159495
 20
126.11151859242793
 11
352.73521966159495
 21
128.11151859242793
  0
LINE
  8
_0-6_6-1ハッチング
  6
CONTINUOUS
 62
    6
 10
351.63324527370185
 20
126.11151859242803
 11
353.63324527370173
 21
128.11151859242793
  0
LINE
  8
_0-6_6-1ハッチング
  6
CONTINUOUS
 62
    6
 10
352.53127088580885
 20
126.11151859242813
 11
354.53127088580868
 21
128.11151859242793
  0
LINE
  8
_0-6_6-1ハッチング
  6
CONTINUOUS
 62
    6
 10
353.42929649791574
 20
126.11151859242803
 11
355.42929649791563
 21
128.11151859242793
  0
LINE
  8
_0-6_6-1ハッチング
  6
CONTINUOUS
 62
    6
 10
354.28442656827207
 20
126.06862305067743
 11
356.32732211002235
 21
128.11151859242773
  0
LINE
  8
_0-6_6-1ハッチング
  6
CONTINUOUS
 62
    6
 10
354.72667926980068
 20
125.61285014009913
 11
357.22534772212936
 21
128.11151859242784
  0
LINE
  8
_0-6_6-1ハッチング
  6
CONTINUOUS
 62
    6
 10
356.12337333423648
 20
126.11151859242793
 11
358.12337333423636
 21
128.11151859242784
  0
LINE
  8
_0-6_6-1ハッチング
  6
CONTINUOUS
 62
    6
 10
357.02139894634337
 20
126.11151859242793
 11
359.02139894634325
 21
128.11151859242784
  0
LINE
  8
_0-6_6-1ハッチング
  6
CONTINUOUS
 62
    6
 10
357.91942455845026
 20
126.11151859242803
 11
359.74971936635336
 21
127.94181340033103
  0
LINE
  8
_0-6_6-1ハッチング
  6
CONTINUOUS
 62
    6
 10
358.78001142287718
 20
126.07407984474793
 11
359.74971936635313
 21
127.04378778822394
  0
LINE
  8
_0-6_6-1ハッチング
  6
CONTINUOUS
 62
    6
 10
359.21800611491034
 20
125.61404892467424
 11
359.74971936635325
 21
126.14576217611713
  0
ARC
  8
_0-5_5-1実寸型
  6
CONTINUOUS
 62
    1
 10
349.74971936635296
 20
125.81151859242823
 40
0.2000000000001098
 50
224.90717867966802
 51
321.02333998123265
  0
LINE
  8
_0-5_5-1実寸型
  6
CONTINUOUS
 62
    1
 10
349.90519981767733
 20
125.68571784022063
 11
350.24971936635325
 21
126.11151859242783
  0
LINE
  8
_0-5_5-1実寸型
  6
CONTINUOUS
 62
    1
 10
350.24971936635325
 20
126.11151859242783
 11
354.24971936635296
 21
126.11151859242793
  0
LINE
  8
_0-5_5-1実寸型
  6
CONTINUOUS
 62
    1
 10
354.24971936635296
 20
126.11151859242793
 11
354.59423891502888
 21
125.68571784022073
  0
ARC
  8
_0-5_5-1実寸型
  6
CONTINUOUS
 62
    1
 10
354.74971936635313
 20
125.81151859242813
 40
0.1999999999999289
 50
218.97666001873327
 51
321.0233399812667
  0
LINE
  8
_0-5_5-1実寸型
  6
CONTINUOUS
 62
    1
 10
354.90519981767756
 20
125.68571784022073
 11
355.24971936635313
 21
126.11151859242783
  0
LINE
  8
_0-5_5-1実寸型
  6
CONTINUOUS
 62
    1
 10
355.24971936635313
 20
126.11151859242783
 11
358.74971936635325
 21
126.11151859242783
  0
LINE
  8
_0-5_5-1実寸型
  6
CONTINUOUS
 62
    1
 10
358.74971936635325
 20
126.11151859242783
 11
359.09423891502888
 21
125.68571784022073
  0
ARC
  8
_0-5_5-1実寸型
  6
CONTINUOUS
 62
    1
 10
359.24971936635313
 20
125.81151859242813
 40
0.199999999999911
 50
218.9766600187269
 51
299.16473045347641
  0
LINE
  8
_0-5_5-1実寸型
  6
CONTINUOUS
 62
    1
 10
359.34718381082297
 20
125.63687414772933
 11
359.74971936635313
 21
125.86151859242813
  0
LINE
  8
_0-5_5-1実寸型
  6
CONTINUOUS
 62
    1
 10
359.74971936635313
 20
125.86151859242813
 11
359.74971936635313
 21
128.11151859242773
  0
LINE
  8
_0-5_5-1実寸型
  6
CONTINUOUS
 62
    1
 10
359.74971936635313
 20
128.11151859242773
 11
349.74971936635313
 21
128.11151859242784
  0
LINE
  8
_0-5_5-1実寸型
  6
CONTINUOUS
 62
    1
 10
349.74971936635313
 20
128.11151859242784
 11
347.24971936635313
 21
131.11151859242793
  0
LINE
  8
_0-5_5-1実寸型
  6
CONTINUOUS
 62
    1
 10
347.24971936635313
 20
131.11151859242793
 11
337.54971936635314
 21
131.11151859242784
  0
LINE
  8
_0-5_5-1実寸型
  6
CONTINUOUS
 62
    1
 10
337.54971936635314
 20
131.11151859242784
 11
337.41870916120888
 21
130.90454920786104
  0
ARC
  8
_0-5_5-1実寸型
  6
CONTINUOUS
 62
    1
 10
337.24971936635313
 20
131.01151859242802
 40
0.1999999999999995
 50
212.33353069350156
 51
327.66646930649841
  0
LINE
  8
_0-5_5-1実寸型
  6
CONTINUOUS
 62
    1
 10
337.08072957149756
 20
130.90454920786104
 11
336.94971936635324
 21
131.11151859242793
  0
LINE
  8
_0-5_5-1実寸型
  6
CONTINUOUS
 62
    1
 10
336.94971936635324
 20
131.11151859242793
 11
327.24971936635313
 21
131.11151859242793
  0
LINE
  8
_0-5_5-1実寸型
  6
CONTINUOUS
 62
    1
 10
327.24971936635313
 20
131.11151859242793
 11
324.74971936635313
 21
128.11151859242784
  0
LINE
  8
_0-5_5-1実寸型
  6
CONTINUOUS
 62
    1
 10
324.74971936635313
 20
128.11151859242784
 11
259.74971936635313
 21
128.11151859242784
  0
LINE
  8
_0-5_5-1実寸型
  6
CONTINUOUS
 62
    1
 10
259.74971936635313
 20
128.11151859242784
 11
266.02644702458088
 21
48.35813189377761
  0
LINE
  8
_0-5_5-1実寸型
  6
CONTINUOUS
 62
    1
 10
266.02644702458088
 20
48.35813189377761
 11
268.02028169204726
 21
48.515050085233312
  0
LINE
  8
_0-5_5-1実寸型
  6
CONTINUOUS
 62
    1
 10
268.02028169204726
 20
48.515050085233312
 11
267.62798621340806
 21
53.49963675389921
  0
LINE
  8
_0-5_5-1実寸型
  6
CONTINUOUS
 62
    1
 10
267.62798621340806
 20
53.49963675389921
 11
275.60332488327293
 21
54.127309519722004
  0
LINE
  8
_0-5_5-1実寸型
  6
CONTINUOUS
 62
    1
 10
275.60332488327293
 20
54.127309519722004
 11
275.52486578754514
 21
55.124226853454999
  0
LINE
  8
_0-5_5-1実寸型
  6
CONTINUOUS
 62
    1
 10
275.52486578754514
 20
55.124226853454999
 11
267.54952711768004
 21
54.496554087632305
  0
LINE
  8
_0-5_5-1実寸型
  6
CONTINUOUS
 62
    1
 10
267.54952711768004
 20
54.496554087632305
 11
261.91330717696803
 21
126.11151859242793
  0
LINE
  8
_0-5_5-1実寸型
  6
CONTINUOUS
 62
    1
 10
261.91330717696803
 20
126.11151859242793
 11
289.24971936635296
 21
126.11151859242793
  0
LINE
  8
_0-5_5-1実寸型
  6
CONTINUOUS
 62
    1
 10
289.24971936635296
 20
126.11151859242793
 11
289.59423891502888
 21
125.68571784022073
  0
ARC
  8
_0-5_5-1実寸型
  6
CONTINUOUS
 62
    1
 10
289.74971936635313
 20
125.81151859242813
 40
0.1999999999999289
 50
218.97666001873327
 51
321.0233399812667
  0
LINE
  8
_0-5_5-1実寸型
  6
CONTINUOUS
 62
    1
 10
289.90519981767756
 20
125.68571784022073
 11
290.24971936635313
 21
126.11151859242783
  0
LINE
  8
_0-5_5-1実寸型
  6
CONTINUOUS
 62
    1
 10
290.24971936635313
 20
126.11151859242783
 11
294.24971936635296
 21
126.11151859242793
  0
LINE
  8
_0-5_5-1実寸型
  6
CONTINUOUS
 62
    1
 10
294.24971936635296
 20
126.11151859242793
 11
294.59423891502888
 21
125.68571784022063
  0
ARC
  8
_0-5_5-1実寸型
  6
CONTINUOUS
 62
    1
 10
294.74971936635313
 20
125.81151859242803
 40
0.1999999999999289
 50
218.97666001873327
 51
321.0233399812667
  0
LINE
  8
_0-5_5-1実寸型
  6
CONTINUOUS
 62
    1
 10
294.90519981767756
 20
125.68571784022063
 11
295.24971936635313
 21
126.11151859242773
  0
LINE
  8
_0-5_5-1実寸型
  6
CONTINUOUS
 62
    1
 10
295.24971936635313
 20
126.11151859242773
 11
299.24971936635296
 21
126.11151859242813
  0
LINE
  8
_0-5_5-1実寸型
  6
CONTINUOUS
 62
    1
 10
299.24971936635296
 20
126.11151859242813
 11
299.59423891502888
 21
125.68571784022073
  0
ARC
  8
_0-5_5-1実寸型
  6
CONTINUOUS
 62
    1
 10
299.74971936635313
 20
125.81151859242813
 40
0.1999999999999289
 50
218.97666001873327
 51
321.0233399812667
  0
LINE
  8
_0-5_5-1実寸型
  6
CONTINUOUS
 62
    1
 10
299.90519981767756
 20
125.68571784022073
 11
300.24971936635325
 21
126.11151859242783
  0
LINE
  8
_0-5_5-1実寸型
  6
CONTINUOUS
 62
    1
 10
300.24971936635325
 20
126.11151859242783
 11
304.24971936635296
 21
126.11151859242813
  0
LINE
  8
_0-5_5-1実寸型
  6
CONTINUOUS
 62
    1
 10
304.24971936635296
 20
126.11151859242813
 11
304.59423891502888
 21
125.68571784022063
  0
ARC
  8
_0-5_5-1実寸型
  6
CONTINUOUS
 62
    1
 10
304.74971936635313
 20
125.81151859242803
 40
0.1999999999999289
 50
218.97666001873327
 51
321.0233399812667
  0
LINE
  8
_0-5_5-1実寸型
  6
CONTINUOUS
 62
    1
 10
304.90519981767756
 20
125.68571784022063
 11
305.24971936635313
 21
126.11151859242773
  0
LINE
  8
_0-5_5-1実寸型
  6
CONTINUOUS
 62
    1
 10
305.24971936635313
 20
126.11151859242773
 11
309.24971936635274
 21
126.11151859242823
  0
LINE
  8
_0-5_5-1実寸型
  6
CONTINUOUS
 62
    1
 10
309.24971936635274
 20
126.11151859242823
 11
309.59423891502888
 21
125.68571784022063
  0
ARC
  8
_0-5_5-1実寸型
  6
CONTINUOUS
 62
    1
 10
309.74971936635313
 20
125.81151859242803
 40
0.1999999999999289
 50
218.97666001873327
 51
321.0233399812667
  0
LINE
  8
_0-5_5-1実寸型
  6
CONTINUOUS
 62
    1
 10
309.90519981767756
 20
125.68571784022063
 11
310.24971936635313
 21
126.11151859242773
  0
LINE
  8
_0-5_5-1実寸型
  6
CONTINUOUS
 62
    1
 10
310.24971936635313
 20
126.11151859242773
 11
314.24971936635296
 21
126.11151859242813
  0
LINE
  8
_0-5_5-1実寸型
  6
CONTINUOUS
 62
    1
 10
314.24971936635296
 20
126.11151859242813
 11
314.59423891502888
 21
125.68571784022073
  0
ARC
  8
_0-5_5-1実寸型
  6
CONTINUOUS
 62
    1
 10
314.74971936635313
 20
125.81151859242813
 40
0.1999999999999289
 50
218.97666001873327
 51
321.0233399812667
  0
LINE
  8
_0-5_5-1実寸型
  6
CONTINUOUS
 62
    1
 10
314.90519981767756
 20
125.68571784022073
 11
315.24971936635313
 21
126.11151859242783
  0
LINE
  8
_0-5_5-1実寸型
  6
CONTINUOUS
 62
    1
 10
315.24971936635313
 20
126.11151859242783
 11
319.24971936635325
 21
126.11151859242783
  0
LINE
  8
_0-5_5-1実寸型
  6
CONTINUOUS
 62
    1
 10
319.24971936635325
 20
126.11151859242783
 11
319.59423891502888
 21
125.68571784022073
  0
ARC
  8
_0-5_5-1実寸型
  6
CONTINUOUS
 62
    1
 10
319.74971936635313
 20
125.81151859242813
 40
0.1999999999999289
 50
218.97666001873327
 51
321.0233399812667
  0
LINE
  8
_0-5_5-1実寸型
  6
CONTINUOUS
 62
    1
 10
319.90519981767756
 20
125.68571784022073
 11
320.24971936635313
 21
126.11151859242783
  0
LINE
  8
_0-5_5-1実寸型
  6
CONTINUOUS
 62
    1
 10
320.24971936635313
 20
126.11151859242783
 11
324.26006545406443
 21
126.11151859242793
  0
LINE
  8
_0-5_5-1実寸型
  6
CONTINUOUS
 62
    1
 10
324.26006545406443
 20
126.11151859242793
 11
324.60458500274058
 21
125.68571784022063
  0
ARC
  8
_0-5_5-1実寸型
  6
CONTINUOUS
 62
    1
 10
324.76006545406483
 20
125.81151859242833
 40
0.2000000000000634
 50
218.97666001880691
 51
315.0928213202917
  0
LINE
  8
_0-5_5-1実寸型
  6
CONTINUOUS
 62
    1
 10
324.90171573254264
 20
125.67032652959473
 11
325.09290779537577
 21
125.86151859242803
  0
LINE
  8
_0-5_5-1実寸型
  6
CONTINUOUS
 62
    1
 10
325.09290779537577
 20
125.86151859242803
 11
326.54971936635314
 21
125.86151859242823
  0
ARC
  8
_0-5_5-1実寸型
  6
CONTINUOUS
 62
    1
 10
326.54971936635314
 20
126.06151859242813
 40
0.1999999999999033
 50
270
 51
44.99999999998272
  0
LINE
  8
_0-5_5-1実寸型
  6
CONTINUOUS
 62
    1
 10
326.69114072259043
 20
126.20293994866533
 11
326.30756189324615
 21
126.58651877800963
  0
LINE
  8
_0-5_5-1実寸型
  6
CONTINUOUS
 62
    1
 10
326.30756189324615
 20
126.58651877800963
 11
328.83256170766458
 21
129.11151859242793
  0
LINE
  8
_0-5_5-1実寸型
  6
CONTINUOUS
 62
    1
 10
328.83256170766458
 20
129.11151859242793
 11
346.16687702504186
 21
129.11151859242793
  0
LINE
  8
_0-5_5-1実寸型
  6
CONTINUOUS
 62
    1
 10
346.16687702504186
 20
129.11151859242793
 11
348.69187683945995
 21
126.58651877800963
  0
LINE
  8
_0-5_5-1実寸型
  6
CONTINUOUS
 62
    1
 10
348.69187683945995
 20
126.58651877800963
 11
348.30829801011595
 21
126.20293994866543
  0
ARC
  8
_0-5_5-1実寸型
  6
CONTINUOUS
 62
    1
 10
348.44971936635324
 20
126.06151859242803
 40
0.2000000000000699
 50
134.9999999999942
 51
269.9999999999838
  0
LINE
  8
_0-5_5-1実寸型
  6
CONTINUOUS
 62
    1
 10
348.44971936635324
 20
125.86151859242803
 11
349.41687702504186
 21
125.86151859242813
  0
LINE
  8
_0-5_5-1実寸型
  6
CONTINUOUS
 62
    1
 10
349.41687702504186
 20
125.86151859242813
 11
349.60852730353224
 21
125.66986831393743
  0
LINE
  8
_0-6_6-1ハッチング
  6
CONTINUOUS
 62
    6
 10
268.59152234546536
 20
54.799143901848424
 11
267.82888124384527
 21
55.561785003468614
  0
LINE
  8
_0-6_6-1ハッチング
  6
CONTINUOUS
 62
    6
 10
269.38593194480603
 20
54.902759914614762
 11
267.75142378997674
 21
56.537268069444025
  0
LINE
  8
_0-6_6-1ハッチング
  6
CONTINUOUS
 62
    6
 10
269.30847449093744
 20
55.878242980590173
 11
267.67396633610815
 21
57.512751135419393
  0
LINE
  8
_0-6_6-1ハッチング
  6
CONTINUOUS
 62
    6
 10
269.23101703706897
 20
56.853726046565583
 11
267.59650888223968
 21
58.488234201394846
  0
LINE
  8
_0-6_6-1ハッチング
  6
CONTINUOUS
 62
    6
 10
269.15355958320043
 20
57.829209112541051
 11
267.51905142837126
 21
59.463717267370299
  0
LINE
  8
_0-6_6-1ハッチング
  6
CONTINUOUS
 62
    6
 10
269.07610212933196
 20
58.804692178516504
 11
267.44159397450267
 21
60.439200333345781
  0
LINE
  8
_0-6_6-1ハッチング
  6
CONTINUOUS
 62
    6
 10
268.99864467546337
 20
59.780175244491915
 11
267.36413652063413
 21
61.414683399321135
  0
LINE
  8
_0-6_6-1ハッチング
  6
CONTINUOUS
 62
    6
 10
268.92118722159483
 20
60.755658310467368
 11
267.28667906676554
 21
62.39016646529663
  0
LINE
  8
_0-6_6-1ハッチング
  6
CONTINUOUS
 62
    6
 10
268.84372976772636
 20
61.731141376442821
 11
267.20922161289707
 21
63.365649531272055
  0
LINE
  8
_0-6_6-1ハッチング
  6
CONTINUOUS
 62
    6
 10
268.76627231385777
 20
62.706624442418232
 11
267.13176415902853
 21
64.341132597247451
  0
LINE
  8
_0-6_6-1ハッチング
  6
CONTINUOUS
 62
    6
 10
268.68881485998924
 20
63.682107508393699
 11
267.05430670516017
 21
65.316615663222876
  0
LINE
  8
_0-6_6-1ハッチング
  6
CONTINUOUS
 62
    6
 10
268.61135740612087
 20
64.657590574369095
 11
266.97684925129158
 21
66.292098729198329
  0
LINE
  8
_0-6_6-1ハッチング
  6
CONTINUOUS
 62
    6
 10
268.53389995225228
 20
65.63307364034452
 11
266.89939179742294
 21
67.267581795173726
  0
LINE
  8
_0-6_6-1ハッチング
  6
CONTINUOUS
 62
    6
 10
268.45644249838375
 20
66.608556706319931
 11
266.82193434355457
 21
68.243064861149151
  0
LINE
  8
_0-6_6-1ハッチング
  6
CONTINUOUS
 62
    6
 10
268.37898504451528
 20
67.584039772295441
 11
266.74447688968604
 21
69.218547927124618
  0
LINE
  8
_0-6_6-1ハッチング
  6
CONTINUOUS
 62
    6
 10
268.30152759064663
 20
68.559522838270851
 11
266.66701943581745
 21
70.194030993100071
  0
LINE
  8
_0-6_6-1ハッチング
  6
CONTINUOUS
 62
    6
 10
268.22407013677815
 20
69.535005904246304
 11
266.58956198194898
 21
71.169514059075482
  0
LINE
  8
_0-6_6-1ハッチング
  6
CONTINUOUS
 62
    6
 10
268.14661268290968
 20
70.510488970221715
 11
266.51210452808044
 21
72.144997125050907
  0
LINE
  8
_0-6_6-1ハッチング
  6
CONTINUOUS
 62
    6
 10
268.06915522904114
 20
71.485972036197126
 11
266.43464707421197
 21
73.12048019102636
  0
LINE
  8
_0-6_6-1ハッチング
  6
CONTINUOUS
 62
    6
 10
267.99169777517255
 20
72.461455102172621
 11
266.35718962034338
 21
74.095963257001756
  0
LINE
  8
_0-6_6-1ハッチング
  6
CONTINUOUS
 62
    6
 10
267.91424032130408
 20
73.436938168148046
 11
266.27973216647496
 21
75.071446322977224
  0
LINE
  8
_0-6_6-1ハッチング
  6
CONTINUOUS
 62
    6
 10
267.83678286743555
 20
74.412421234123457
 11
266.20227471260648
 21
76.046929388952634
  0
LINE
  8
_0-6_6-1ハッチング
  6
CONTINUOUS
 62
    6
 10
267.75932541356696
 20
75.387904300098924
 11
266.12481725873783
 21
77.022412454928144
  0
LINE
  8
_0-6_6-1ハッチング
  6
CONTINUOUS
 62
    6
 10
267.68186795969854
 20
76.363387366074321
 11
266.04735980486936
 21
77.997895520903512
  0
LINE
  8
_0-6_6-1ハッチング
  6
CONTINUOUS
 62
    6
 10
267.60441050583006
 20
77.338870432049788
 11
265.96990235100088
 21
78.973378586878923
  0
LINE
  8
_0-6_6-1ハッチング
  6
CONTINUOUS
 62
    6
 10
267.52695305196147
 20
78.314353498025227
 11
265.89244489713224
 21
79.948861652854404
  0
LINE
  8
_0-6_6-1ハッチング
  6
CONTINUOUS
 62
    6
 10
267.44949559809294
 20
79.289836564000609
 11
265.81498744326376
 21
80.924344718829829
  0
LINE
  8
_0-6_6-1ハッチング
  6
CONTINUOUS
 62
    6
 10
267.37203814422446
 20
80.265319629976048
 11
265.73752998939528
 21
81.899827784805225
  0
LINE
  8
_0-6_6-1ハッチング
  6
CONTINUOUS
 62
    6
 10
267.29458069035593
 20
81.240802695951487
 11
265.66007253552687
 21
82.875310850780664
  0
LINE
  8
_0-6_6-1ハッチング
  6
CONTINUOUS
 62
    6
 10
267.21712323648734
 20
82.216285761926926
 11
265.58261508165816
 21
83.850793916756118
  0
LINE
  8
_0-6_6-1ハッチング
  6
CONTINUOUS
 62
    6
 10
267.13966578261886
 20
83.191768827902337
 11
265.50515762778974
 21
84.826276982731528
  0
LINE
  8
_0-6_6-1ハッチング
  6
CONTINUOUS
 62
    6
 10
267.06220832875033
 20
84.16725189387779
 11
265.42770017392127
 21
85.801760048706996
  0
LINE
  8
_0-6_6-1ハッチング
  6
CONTINUOUS
 62
    6
 10
266.98475087488174
 20
85.142734959853328
 11
265.35024272005268
 21
86.777243114682435
  0
LINE
  8
_0-6_6-1ハッチング
  6
CONTINUOUS
 62
    6
 10
266.90729342101338
 20
86.118218025828668
 11
265.27278526618414
 21
87.752726180657845
  0
LINE
  8
_0-6_6-1ハッチング
  6
CONTINUOUS
 62
    6
 10
266.82983596714485
 20
87.093701091804178
 11
265.19532781231567
 21
88.728209246633313
  0
LINE
  8
_0-6_6-1ハッチング
  6
CONTINUOUS
 62
    6
 10
266.75237851327637
 20
88.069184157779546
 11
265.11787035844714
 21
89.703692312608737
  0
LINE
  8
_0-6_6-1ハッチング
  6
CONTINUOUS
 62
    6
 10
266.67492105940778
 20
89.044667223754985
 11
265.04041290457855
 21
90.679175378584134
  0
LINE
  8
_0-6_6-1ハッチング
  6
CONTINUOUS
 62
    6
 10
266.59746360553925
 20
90.020150289730424
 11
264.96295545071018
 21
91.654658444559544
  0
LINE
  8
_0-6_6-1ハッチング
  6
CONTINUOUS
 62
    6
 10
266.52000615167077
 20
90.995633355705877
 11
264.88549799684165
 21
92.630141510534997
  0
LINE
  8
_0-6_6-1ハッチング
  6
CONTINUOUS
 62
    6
 10
266.44254869780218
 20
91.97111642168133
 11
264.80804054297306
 21
93.605624576510465
  0
LINE
  8
_0-6_6-1ハッチング
  6
CONTINUOUS
 62
    6
 10
266.36509124393365
 20
92.946599487656698
 11
264.73058308910458
 21
94.581107642485875
  0
LINE
  8
_0-6_6-1ハッチング
  6
CONTINUOUS
 62
    6
 10
266.28763379006517
 20
93.92208255363218
 11
264.65312563523594
 21
95.556590708461329
  0
LINE
  8
_0-6_6-1ハッチング
  6
CONTINUOUS
 62
    6
 10
266.21017633619675
 20
94.897565619607619
 11
264.57566818136758
 21
96.532073774436768
  0
LINE
  8
_0-6_6-1ハッチング
  6
CONTINUOUS
 62
    6
 10
266.13271888232805
 20
95.873048685583015
 11
264.49821072749893
 21
97.507556840412164
  0
LINE
  8
_0-6_6-1ハッチング
  6
CONTINUOUS
 62
    6
 10
266.05526142845963
 20
96.84853175155844
 11
264.42075327363045
 21
98.483039906387575
  0
LINE
  8
_0-6_6-1ハッチング
  6
CONTINUOUS
 62
    6
 10
265.97780397459104
 20
97.824014817533936
 11
264.34329581976198
 21
99.458522972363056
  0
LINE
  8
_0-6_6-1ハッチング
  6
CONTINUOUS
 62
    6
 10
265.90034652072256
 20
98.799497883509318
 11
264.26583836589333
 21
100.43400603833842
  0
LINE
  8
_0-6_6-1ハッチング
  6
CONTINUOUS
 62
    6
 10
265.82288906685403
 20
99.774980949484757
 11
264.18838091202497
 21
101.40948910431393
  0
LINE
  8
_0-6_6-1ハッチング
  6
CONTINUOUS
 62
    6
 10
265.74543161298556
 20
100.75046401546022
 11
264.11092345815638
 21
102.38497217028933
  0
LINE
  8
_0-6_6-1ハッチング
  6
CONTINUOUS
 62
    6
 10
265.66797415911708
 20
101.72594708143563
 11
264.03346600428785
 21
103.36045523626473
  0
LINE
  8
_0-6_6-1ハッチング
  6
CONTINUOUS
 62
    6
 10
265.59051670524843
 20
102.70143014741103
 11
263.95600855041937
 21
104.33593830224014
  0
LINE
  8
_0-6_6-1ハッチング
  6
CONTINUOUS
 62
    6
 10
265.51305925138007
 20
103.67691321338653
 11
263.87855109655084
 21
105.31142136821563
  0
LINE
  8
_0-6_6-1ハッチング
  6
CONTINUOUS
 62
    6
 10
265.43560179751148
 20
104.65239627936194
 11
263.80109364268225
 21
106.28690443419113
  0
LINE
  8
_0-6_6-1ハッチング
  6
CONTINUOUS
 62
    6
 10
265.35814434364295
 20
105.62787934533733
 11
263.72363618881377
 21
107.26238750016643
  0
LINE
  8
_0-6_6-1ハッチング
  6
CONTINUOUS
 62
    6
 10
265.28068688977447
 20
106.60336241131273
 11
263.64617873494524
 21
108.23787056614194
  0
LINE
  8
_0-6_6-1ハッチング
  6
CONTINUOUS
 62
    6
 10
265.20322943590594
 20
107.57884547728823
 11
263.56872128107688
 21
109.21335363211733
  0
LINE
  8
_0-6_6-1ハッチング
  6
CONTINUOUS
 62
    6
 10
265.12577198203735
 20
108.55432854326364
 11
263.49126382720823
 21
110.18883669809283
  0
LINE
  8
_0-6_6-1ハッチング
  6
CONTINUOUS
 62
    6
 10
265.04831452816887
 20
109.52981160923903
 11
263.41380637333975
 21
111.16431976406813
  0
LINE
  8
_0-6_6-1ハッチング
  6
CONTINUOUS
 62
    6
 10
264.97085707430034
 20
110.50529467521453
 11
263.33634891947128
 21
112.13980283004364
  0
LINE
  8
_0-6_6-1ハッチング
  6
CONTINUOUS
 62
    6
 10
264.89339962043186
 20
111.48077774118993
 11
263.25889146560263
 21
113.11528589601913
  0
LINE
  8
_0-6_6-1ハッチング
  6
CONTINUOUS
 62
    6
 10
264.81594216656333
 20
112.45626080716534
 11
263.18143401173415
 21
114.09076896199443
  0
LINE
  8
_0-6_6-1ハッチング
  6
CONTINUOUS
 62
    6
 10
264.73848471269486
 20
113.43174387314083
 11
263.10397655786568
 21
115.06625202796994
  0
LINE
  8
_0-6_6-1ハッチング
  6
CONTINUOUS
 62
    6
 10
264.66102725882638
 20
114.40722693911623
 11
263.02651910399726
 21
116.04173509394543
  0
LINE
  8
_0-6_6-1ハッチング
  6
CONTINUOUS
 62
    6
 10
264.58356980495773
 20
115.38271000509162
 11
262.94906165012856
 21
117.01721815992083
  0
LINE
  8
_0-6_6-1ハッチング
  6
CONTINUOUS
 62
    6
 10
264.50611235108926
 20
116.35819307106713
 11
262.87160419626008
 21
117.99270122589623
  0
LINE
  8
_0-6_6-1ハッチング
  6
CONTINUOUS
 62
    6
 10
264.42865489722078
 20
117.33367613704253
 11
262.79414674239166
 21
118.96818429187164
  0
LINE
  8
_0-6_6-1ハッチング
  6
CONTINUOUS
 62
    6
 10
264.35119744335213
 20
118.30915920301803
 11
262.71668928852296
 21
119.94366735784723
  0
LINE
  8
_0-6_6-1ハッチング
  6
CONTINUOUS
 62
    6
 10
264.27373998948366
 20
119.28464226899344
 11
262.63923183465454
 21
120.91915042382253
  0
LINE
  8
_0-6_6-1ハッチング
  6
CONTINUOUS
 62
    6
 10
264.19628253561518
 20
120.26012533496883
 11
262.56177438078606
 21
121.89463348979803
  0
LINE
  8
_0-6_6-1ハッチング
  6
CONTINUOUS
 62
    6
 10
264.11882508174676
 20
121.23560840094433
 11
262.48431692691753
 21
122.87011655577344
  0
LINE
  8
_0-6_6-1ハッチング
  6
CONTINUOUS
 62
    6
 10
264.04136762787817
 20
122.21109146691963
 11
262.40685947304894
 21
123.84559962174883
  0
LINE
  8
_0-6_6-1ハッチング
  6
CONTINUOUS
 62
    6
 10
263.96391017400964
 20
123.18657453289514
 11
262.32940201918058
 21
124.82108268772423
  0
LINE
  8
_0-6_6-1ハッチング
  6
CONTINUOUS
 62
    6
 10
263.93699172658398
 20
124.11151859242773
 11
262.43699172658376
 21
125.61151859242803
  0
LINE
  8
_0-6_6-1ハッチング
  6
CONTINUOUS
 62
    6
 10
264.83501733869076
 20
124.11151859242773
 11
263.33501733869065
 21
125.61151859242803
  0
LINE
  8
_0-6_6-1ハッチング
  6
CONTINUOUS
 62
    6
 10
265.73304295079777
 20
124.11151859242773
 11
264.23304295079748
 21
125.61151859242803
  0
LINE
  8
_0-6_6-1ハッチング
  6
CONTINUOUS
 62
    6
 10
266.63106856290466
 20
124.11151859242783
 11
265.13106856290443
 21
125.61151859242803
  0
LINE
  8
_0-6_6-1ハッチング
  6
CONTINUOUS
 62
    6
 10
267.52909417501155
 20
124.11151859242783
 11
266.02909417501138
 21
125.61151859242803
  0
LINE
  8
_0-6_6-1ハッチング
  6
CONTINUOUS
 62
    6
 10
268.42711978711844
 20
124.11151859242773
 11
266.92711978711827
 21
125.61151859242793
  0
LINE
  8
_0-6_6-1ハッチング
  6
CONTINUOUS
 62
    6
 10
269.32514539922533
 20
124.11151859242783
 11
267.82514539922516
 21
125.61151859242803
  0
LINE
  8
_0-6_6-1ハッチング
  6
CONTINUOUS
 62
    6
 10
270.22317101133234
 20
124.11151859242783
 11
268.72317101133206
 21
125.61151859242803
  0
LINE
  8
_0-6_6-1ハッチング
  6
CONTINUOUS
 62
    6
 10
271.12119662343918
 20
124.11151859242773
 11
269.62119662343895
 21
125.61151859242803
  0
LINE
  8
_0-6_6-1ハッチング
  6
CONTINUOUS
 62
    6
 10
272.01922223554618
 20
124.11151859242783
 11
270.51922223554584
 21
125.61151859242803
  0
LINE
  8
_0-6_6-1ハッチング
  6
CONTINUOUS
 62
    6
 10
272.91724784765307
 20
124.11151859242783
 11
271.41724784765285
 21
125.61151859242803
  0
LINE
  8
_0-6_6-1ハッチング
  6
CONTINUOUS
 62
    6
 10
273.81527345975996
 20
124.11151859242783
 11
272.31527345975974
 21
125.61151859242803
  0
LINE
  8
_0-6_6-1ハッチング
  6
CONTINUOUS
 62
    6
 10
274.71329907186686
 20
124.11151859242783
 11
273.21329907186663
 21
125.61151859242803
  0
LINE
  8
_0-6_6-1ハッチング
  6
CONTINUOUS
 62
    6
 10
275.61132468397375
 20
124.11151859242783
 11
274.11132468397358
 21
125.61151859242803
  0
LINE
  8
_0-6_6-1ハッチング
  6
CONTINUOUS
 62
    6
 10
276.50935029608064
 20
124.11151859242783
 11
275.00935029608058
 21
125.61151859242803
  0
LINE
  8
_0-6_6-1ハッチング
  6
CONTINUOUS
 62
    6
 10
277.40737590818753
 20
124.11151859242773
 11
275.90737590818736
 21
125.61151859242803
  0
LINE
  8
_0-6_6-1ハッチング
  6
CONTINUOUS
 62
    6
 10
278.30540152029454
 20
124.11151859242783
 11
276.80540152029425
 21
125.61151859242803
  0
LINE
  8
_0-6_6-1ハッチング
  6
CONTINUOUS
 62
    6
 10
279.20342713240143
 20
124.11151859242783
 11
277.70342713240126
 21
125.61151859242803
  0
LINE
  8
_0-6_6-1ハッチング
  6
CONTINUOUS
 62
    6
 10
280.10145274450838
 20
124.11151859242783
 11
278.60145274450815
 21
125.61151859242803
  0
LINE
  8
_0-6_6-1ハッチング
  6
CONTINUOUS
 62
    6
 10
280.99947835661527
 20
124.11151859242783
 11
279.49947835661504
 21
125.61151859242803
  0
LINE
  8
_0-6_6-1ハッチング
  6
CONTINUOUS
 62
    6
 10
281.89750396872216
 20
124.11151859242783
 11
280.39750396872194
 21
125.61151859242803
  0
LINE
  8
_0-6_6-1ハッチング
  6
CONTINUOUS
 62
    6
 10
282.79552958082917
 20
124.11151859242783
 11
281.29552958082894
 21
125.61151859242803
  0
LINE
  8
_0-6_6-1ハッチング
  6
CONTINUOUS
 62
    6
 10
283.69355519293595
 20
124.11151859242783
 11
282.19355519293583
 21
125.61151859242793
  0
LINE
  8
_0-6_6-1ハッチング
  6
CONTINUOUS
 62
    6
 10
284.59158080504295
 20
124.11151859242783
 11
283.09158080504278
 21
125.61151859242803
  0
LINE
  8
_0-6_6-1ハッチング
  6
CONTINUOUS
 62
    6
 10
285.48960641714984
 20
124.11151859242783
 11
283.98960641714967
 21
125.61151859242803
  0
LINE
  8
_0-6_6-1ハッチング
  6
CONTINUOUS
 62
    6
 10
286.38763202925668
 20
124.11151859242783
 11
284.88763202925657
 21
125.61151859242793
  0
LINE
  8
_0-6_6-1ハッチング
  6
CONTINUOUS
 62
    6
 10
287.28565764136368
 20
124.11151859242783
 11
285.78565764136346
 21
125.61151859242803
  0
LINE
  8
_0-6_6-1ハッチング
  6
CONTINUOUS
 62
    6
 10
288.18368325347058
 20
124.11151859242783
 11
286.68368325347035
 21
125.61151859242803
  0
LINE
  8
_0-6_6-1ハッチング
  6
CONTINUOUS
 62
    6
 10
289.08170886557747
 20
124.11151859242793
 11
287.58170886557735
 21
125.61151859242803
  0
LINE
  8
_0-6_6-1ハッチング
  6
CONTINUOUS
 62
    6
 10
289.97973447768436
 20
124.11151859242783
 11
288.47973447768425
 21
125.61151859242793
  0
LINE
  8
_0-6_6-1ハッチング
  6
CONTINUOUS
 62
    6
 10
290.87776008979137
 20
124.11151859242783
 11
289.37776008979114
 21
125.61151859242803
  0
LINE
  8
_0-6_6-1ハッチング
  6
CONTINUOUS
 62
    6
 10
291.77578570189826
 20
124.11151859242783
 11
290.27578570189803
 21
125.61151859242803
  0
LINE
  8
_0-6_6-1ハッチング
  6
CONTINUOUS
 62
    6
 10
292.67381131400504
 20
124.11151859242783
 11
291.17381131400498
 21
125.61151859242803
  0
LINE
  8
_0-6_6-1ハッチング
  6
CONTINUOUS
 62
    6
 10
293.57183692611204
 20
124.11151859242783
 11
292.07183692611187
 21
125.61151859242803
  0
LINE
  8
_0-6_6-1ハッチング
  6
CONTINUOUS
 62
    6
 10
294.46986253821893
 20
124.11151859242793
 11
292.96986253821888
 21
125.61151859242803
  0
LINE
  8
_0-6_6-1ハッチング
  6
CONTINUOUS
 62
    6
 10
295.36788815032588
 20
124.11151859242793
 11
293.86788815032565
 21
125.61151859242803
  0
LINE
  8
_0-6_6-1ハッチング
  6
CONTINUOUS
 62
    6
 10
296.26591376243277
 20
124.11151859242783
 11
294.76591376243266
 21
125.61151859242793
  0
LINE
  8
_0-6_6-1ハッチング
  6
CONTINUOUS
 62
    6
 10
297.16393937453978
 20
124.11151859242783
 11
295.66393937453955
 21
125.61151859242803
  0
LINE
  8
_0-6_6-1ハッチング
  6
CONTINUOUS
 62
    6
 10
298.06196498664667
 20
124.11151859242793
 11
296.56196498664656
 21
125.61151859242803
  0
LINE
  8
_0-6_6-1ハッチング
  6
CONTINUOUS
 62
    6
 10
298.95999059875356
 20
124.11151859242783
 11
297.45999059875334
 21
125.61151859242803
  0
LINE
  8
_0-6_6-1ハッチング
  6
CONTINUOUS
 62
    6
 10
299.85801621086046
 20
124.11151859242783
 11
298.35801621086028
 21
125.61151859242803
  0
LINE
  8
_0-6_6-1ハッチング
  6
CONTINUOUS
 62
    6
 10
300.75604182296735
 20
124.11151859242793
 11
299.25604182296723
 21
125.61151859242803
  0
LINE
  8
_0-6_6-1ハッチング
  6
CONTINUOUS
 62
    6
 10
301.65406743507424
 20
124.11151859242783
 11
300.15406743507418
 21
125.61151859242793
  0
LINE
  8
_0-6_6-1ハッチング
  6
CONTINUOUS
 62
    6
 10
302.55209304718113
 20
124.11151859242793
 11
301.05209304718107
 21
125.61151859242803
  0
LINE
  8
_0-6_6-1ハッチング
  6
CONTINUOUS
 62
    6
 10
303.45011865928814
 20
124.11151859242783
 11
301.95011865928797
 21
125.61151859242803
  0
LINE
  8
_0-6_6-1ハッチング
  6
CONTINUOUS
 62
    6
 10
304.34814427139503
 20
124.11151859242793
 11
302.84814427139497
 21
125.61151859242803
  0
LINE
  8
_0-6_6-1ハッチング
  6
CONTINUOUS
 62
    6
 10
305.24616988350198
 20
124.11151859242783
 11
303.74616988350175
 21
125.61151859242803
  0
LINE
  8
_0-6_6-1ハッチング
  6
CONTINUOUS
 62
    6
 10
306.14419549560887
 20
124.11151859242793
 11
304.64419549560876
 21
125.61151859242803
  0
LINE
  8
_0-6_6-1ハッチング
  6
CONTINUOUS
 62
    6
 10
307.04222110771576
 20
124.11151859242793
 11
305.54222110771565
 21
125.61151859242803
  0
LINE
  8
_0-6_6-1ハッチング
  6
CONTINUOUS
 62
    6
 10
307.94024671982265
 20
124.11151859242783
 11
306.44024671982254
 21
125.61151859242793
  0
LINE
  8
_0-6_6-1ハッチング
  6
CONTINUOUS
 62
    6
 10
308.83827233192955
 20
124.11151859242783
 11
307.33827233192943
 21
125.61151859242803
  0
LINE
  8
_0-6_6-1ハッチング
  6
CONTINUOUS
 62
    6
 10
309.73629794403644
 20
124.11151859242793
 11
308.23629794403638
 21
125.61151859242803
  0
LINE
  8
_0-6_6-1ハッチング
  6
CONTINUOUS
 62
    6
 10
310.63432355614333
 20
124.11151859242793
 11
309.13432355614327
 21
125.61151859242803
  0
LINE
  8
_0-6_6-1ハッチング
  6
CONTINUOUS
 62
    6
 10
311.53234916825033
 20
124.11151859242783
 11
310.03234916825016
 21
125.61151859242793
  0
LINE
  8
_0-6_6-1ハッチング
  6
CONTINUOUS
 62
    6
 10
312.43037478035728
 20
124.11151859242793
 11
310.93037478035717
 21
125.61151859242803
  0
LINE
  8
_0-6_6-1ハッチング
  6
CONTINUOUS
 62
    6
 10
313.32840039246418
 20
124.11151859242793
 11
311.82840039246406
 21
125.61151859242803
  0
LINE
  8
_0-6_6-1ハッチング
  6
CONTINUOUS
 62
    6
 10
314.22642600457107
 20
124.11151859242783
 11
312.72642600457095
 21
125.61151859242793
  0
LINE
  8
_0-6_6-1ハッチング
  6
CONTINUOUS
 62
    6
 10
315.12445161667796
 20
124.11151859242783
 11
313.62445161667785
 21
125.61151859242793
  0
LINE
  8
_0-6_6-1ハッチング
  6
CONTINUOUS
 62
    6
 10
316.02247722878485
 20
124.11151859242793
 11
314.52247722878474
 21
125.61151859242803
  0
LINE
  8
_0-6_6-1ハッチング
  6
CONTINUOUS
 62
    6
 10
316.92050284089174
 20
124.11151859242783
 11
315.42050284089163
 21
125.61151859242793
  0
LINE
  8
_0-6_6-1ハッチング
  6
CONTINUOUS
 62
    6
 10
317.81852845299863
 20
124.11151859242793
 11
316.31852845299863
 21
125.61151859242793
  0
LINE
  8
_0-6_6-1ハッチング
  6
CONTINUOUS
 62
    6
 10
318.71655406510558
 20
124.11151859242793
 11
317.21655406510558
 21
125.61151859242803
  0
LINE
  8
_0-6_6-1ハッチング
  6
CONTINUOUS
 62
    6
 10
319.61457967721253
 20
124.11151859242793
 11
318.11457967721248
 21
125.61151859242803
  0
LINE
  8
_0-6_6-1ハッチング
  6
CONTINUOUS
 62
    6
 10
320.51260528931948
 20
124.11151859242793
 11
319.01260528931937
 21
125.61151859242803
  0
LINE
  8
_0-6_6-1ハッチング
  6
CONTINUOUS
 62
    6
 10
321.41063090142626
 20
124.11151859242793
 11
319.91063090142637
 21
125.61151859242793
  0
LINE
  8
_0-6_6-1ハッチング
  6
CONTINUOUS
 62
    6
 10
322.30865651353338
 20
124.11151859242793
 11
320.80865651353326
 21
125.61151859242803
  0
LINE
  8
_0-6_6-1ハッチング
  6
CONTINUOUS
 62
    6
 10
323.20668212564016
 20
124.11151859242793
 11
321.70668212564004
 21
125.61151859242803
  0
LINE
  8
_0-6_6-1ハッチング
  6
CONTINUOUS
 62
    6
 10
324.10470773774705
 20
124.11151859242793
 11
322.60470773774705
 21
125.61151859242793
  0
LINE
  8
_0-6_6-1ハッチング
  6
CONTINUOUS
 62
    6
 10
325.00273334985394
 20
124.11151859242793
 11
323.50273334985394
 21
125.61151859242803
  0
LINE
  8
_0-6_6-1ハッチング
  6
CONTINUOUS
 62
    6
 10
325.90075896196095
 20
124.11151859242793
 11
324.40075896196083
 21
125.61151859242803
  0
LINE
  8
_0-6_6-1ハッチング
  6
CONTINUOUS
 62
    6
 10
326.79878457406784
 20
124.11151859242793
 11
325.29878457406778
 21
125.61151859242803
  0
LINE
  8
_0-6_6-1ハッチング
  6
CONTINUOUS
 62
    6
 10
327.69681018617473
 20
124.11151859242793
 11
326.19681018617467
 21
125.61151859242803
  0
LINE
  8
_0-6_6-1ハッチング
  6
CONTINUOUS
 62
    6
 10
328.07540589694014
 20
124.63094849376944
 11
326.97239331150064
 21
125.73396107920892
  0
LINE
  8
_0-6_6-1ハッチング
  6
CONTINUOUS
 62
    6
 10
328.39626907860793
 20
125.20811092420853
 11
327.29325649316843
 21
126.31112350964803
  0
LINE
  8
_0-6_6-1ハッチング
  6
CONTINUOUS
 62
    6
 10
328.71713226027578
 20
125.78527335464773
 11
327.61411967483633
 21
126.88828594008713
  0
LINE
  8
_0-6_6-1ハッチング
  6
CONTINUOUS
 62
    6
 10
329.03799544194356
 20
126.36243578508683
 11
327.93498285650418
 21
127.46544837052623
  0
LINE
  8
_0-6_6-1ハッチング
  6
CONTINUOUS
 62
    6
 10
329.35885862361135
 20
126.93959821552583
 11
328.25584603817208
 21
128.04261080096524
  0
LINE
  8
_0-6_6-1ハッチング
  6
CONTINUOUS
 62
    6
 10
330.13496385881626
 20
127.06151859242803
 11
328.63496385881615
 21
128.56151859242803
  0
LINE
  8
_0-6_6-1ハッチング
  6
CONTINUOUS
 62
    6
 10
331.03298947092316
 20
127.06151859242793
 11
329.53298947092316
 21
128.56151859242803
  0
LINE
  8
_0-6_6-1ハッチング
  6
CONTINUOUS
 62
    6
 10
331.93101508303005
 20
127.06151859242803
 11
330.43101508302993
 21
128.56151859242803
  0
LINE
  8
_0-6_6-1ハッチング
  6
CONTINUOUS
 62
    6
 10
332.82904069513688
 20
127.06151859242803
 11
331.32904069513688
 21
128.56151859242803
  0
LINE
  8
_0-6_6-1ハッチング
  6
CONTINUOUS
 62
    6
 10
333.72706630724383
 20
127.06151859242803
 11
332.22706630724383
 21
128.56151859242803
  0
LINE
  8
_0-6_6-1ハッチング
  6
CONTINUOUS
 62
    6
 10
334.62509191935078
 20
127.06151859242803
 11
333.12509191935078
 21
128.56151859242803
  0
LINE
  8
_0-6_6-1ハッチング
  6
CONTINUOUS
 62
    6
 10
335.52311753145767
 20
127.06151859242793
 11
334.02311753145767
 21
128.56151859242794
  0
LINE
  8
_0-6_6-1ハッチング
  6
CONTINUOUS
 62
    6
 10
336.42114314356456
 20
127.06151859242803
 11
334.92114314356456
 21
128.56151859242803
  0
LINE
  8
_0-6_6-1ハッチング
  6
CONTINUOUS
 62
    6
 10
337.31916875567157
 20
127.06151859242793
 11
335.81916875567146
 21
128.56151859242803
  0
LINE
  8
_0-6_6-1ハッチング
  6
CONTINUOUS
 62
    6
 10
338.21719436777846
 20
127.06151859242803
 11
336.71719436777846
 21
128.56151859242803
  0
LINE
  8
_0-6_6-1ハッチング
  6
CONTINUOUS
 62
    6
 10
339.11521997988535
 20
127.06151859242793
 11
337.61521997988535
 21
128.56151859242803
  0
LINE
  8
_0-6_6-1ハッチング
  6
CONTINUOUS
 62
    6
 10
340.01324559199224
 20
127.06151859242803
 11
338.51324559199224
 21
128.56151859242803
  0
LINE
  8
_0-6_6-1ハッチング
  6
CONTINUOUS
 62
    6
 10
340.91127120409925
 20
127.06151859242793
 11
339.41127120409914
 21
128.56151859242803
  0
LINE
  8
_0-6_6-1ハッチング
  6
CONTINUOUS
 62
    6
 10
341.80929681620603
 20
127.06151859242803
 11
340.30929681620603
 21
128.56151859242803
  0
LINE
  8
_0-6_6-1ハッチング
  6
CONTINUOUS
 62
    6
 10
342.70732242831303
 20
127.06151859242793
 11
341.20732242831298
 21
128.56151859242803
  0
LINE
  8
_0-6_6-1ハッチング
  6
CONTINUOUS
 62
    6
 10
343.60534804041998
 20
127.06151859242803
 11
342.10534804041998
 21
128.56151859242803
  0
LINE
  8
_0-6_6-1ハッチング
  6
CONTINUOUS
 62
    6
 10
347.45337365252698
 20
124.11151859242783
 11
347.34533267008646
 21
124.21955957486823
  0
LINE
  8
_0-6_6-1ハッチング
  6
CONTINUOUS
 62
    6
 10
344.50337365252688
 20
127.06151859242793
 11
343.00337365252676
 21
128.56151859242803
  0
LINE
  8
_0-6_6-1ハッチング
  6
CONTINUOUS
 62
    6
 10
348.35139926463387
 20
124.11151859242793
 11
343.90139926463365
 21
128.56151859242803
  0
LINE
  8
_0-6_6-1ハッチング
  6
CONTINUOUS
 62
    6
 10
349.24942487674076
 20
124.11151859242793
 11
344.79942487674066
 21
128.56151859242803
  0
LINE
  8
_0-6_6-1ハッチング
  6
CONTINUOUS
 62
    6
 10
350.14745048884765
 20
124.11151859242793
 11
348.64745048884754
 21
125.61151859242803
  0
LINE
  8
_0-6_6-1ハッチング
  6
CONTINUOUS
 62
    6
 10
346.73869806251594
 20
127.52027101875963
 11
345.69745048884755
 21
128.56151859242803
  0
LINE
  8
_0-6_6-1ハッチング
  6
CONTINUOUS
 62
    6
 10
351.04547610095466
 20
124.11151859242783
 11
349.54547610095443
 21
125.61151859242793
  0
LINE
  8
_0-6_6-1ハッチング
  6
CONTINUOUS
 62
    6
 10
351.94350171306155
 20
124.11151859242793
 11
350.44350171306138
 21
125.61151859242803
  0
LINE
  8
_0-6_6-1ハッチング
  6
CONTINUOUS
 62
    6
 10
352.84152732516844
 20
124.11151859242793
 11
351.34152732516833
 21
125.61151859242803
  0
LINE
  8
_0-6_6-1ハッチング
  6
CONTINUOUS
 62
    6
 10
353.73955293727528
 20
124.11151859242783
 11
352.23955293727528
 21
125.61151859242793
  0
LINE
  8
_0-6_6-1ハッチング
  6
CONTINUOUS
 62
    6
 10
354.63757854938228
 20
124.11151859242793
 11
353.13757854938217
 21
125.61151859242803
  0
LINE
  8
_0-6_6-1ハッチング
  6
CONTINUOUS
 62
    6
 10
355.53560416148918
 20
124.11151859242793
 11
354.03560416148906
 21
125.61151859242803
  0
LINE
  8
_0-6_6-1ハッチング
  6
CONTINUOUS
 62
    6
 10
356.43362977359607
 20
124.11151859242793
 11
354.93362977359595
 21
125.61151859242803
  0
LINE
  8
_0-6_6-1ハッチング
  6
CONTINUOUS
 62
    6
 10
357.33165538570296
 20
124.11151859242783
 11
355.83165538570285
 21
125.61151859242793
  0
LINE
  8
_0-6_6-1ハッチング
  6
CONTINUOUS
 62
    6
 10
358.22968099780985
 20
124.11151859242793
 11
356.72968099780974
 21
125.61151859242803
  0
LINE
  8
_0-6_6-1ハッチング
  6
CONTINUOUS
 62
    6
 10
359.12770660991686
 20
124.11151859242793
 11
357.62770660991674
 21
125.61151859242803
  0
LINE
  8
_0-6_6-1ハッチング
  6
CONTINUOUS
 62
    6
 10
359.76663808738078
 20
124.37061272707084
 11
358.52573222202363
 21
125.61151859242793
  0
LINE
  8
_0-6_6-1ハッチング
  6
CONTINUOUS
 62
    6
 10
359.76663808738078
 20
125.26863833917773
 11
359.42375783413058
 21
125.61151859242803
  0
LINE
  8
_0-5_5-1実寸型
  6
CONTINUOUS
 62
    1
 10
267.89383707610625
 20
54.743744760181059
 11
262.26663808738084
 21
125.61151859242793
  0
LINE
  8
_0-5_5-1実寸型
  6
CONTINUOUS
 62
    1
 10
262.26663808738084
 20
125.61151859242793
 11
326.90432359003597
 21
125.61151859242793
  0
LINE
  8
_0-5_5-1実寸型
  6
CONTINUOUS
 62
    1
 10
326.90432359003597
 20
125.61151859242793
 11
328.54432359003607
 21
128.56151859242803
  0
LINE
  8
_0-5_5-1実寸型
  6
CONTINUOUS
 62
    1
 10
328.54432359003607
 20
128.56151859242803
 11
345.95511514267054
 21
128.56151859242803
  0
LINE
  8
_0-5_5-1実寸型
  6
CONTINUOUS
 62
    1
 10
345.95511514267054
 20
128.56151859242803
 11
348.17511514267056
 21
125.61151859242793
  0
LINE
  8
_0-5_5-1実寸型
  6
CONTINUOUS
 62
    1
 10
348.17511514267056
 20
125.61151859242793
 11
359.76663808738084
 21
125.61151859242793
  0
LINE
  8
_0-5_5-1実寸型
  6
CONTINUOUS
 62
    1
 10
359.76663808738084
 20
125.61151859242793
 11
359.76663808738084
 21
124.11151859242793
  0
LINE
  8
_0-5_5-1実寸型
  6
CONTINUOUS
 62
    1
 10
359.76663808738084
 20
124.11151859242793
 11
347.42663808738075
 21
124.11151859242793
  0
LINE
  8
_0-5_5-1実寸型
  6
CONTINUOUS
 62
    1
 10
347.42663808738075
 20
124.11151859242793
 11
345.20663808738067
 21
127.06151859242803
  0
LINE
  8
_0-5_5-1実寸型
  6
CONTINUOUS
 62
    1
 10
345.20663808738067
 20
127.06151859242803
 11
329.42663808738064
 21
127.06151859242803
  0
LINE
  8
_0-5_5-1実寸型
  6
CONTINUOUS
 62
    1
 10
329.42663808738064
 20
127.06151859242803
 11
327.78663808738088
 21
124.11151859242793
  0
LINE
  8
_0-5_5-1実寸型
  6
CONTINUOUS
 62
    1
 10
327.78663808738088
 20
124.11151859242793
 11
263.89046572958904
 21
124.11151859242773
  0
LINE
  8
_0-5_5-1実寸型
  6
CONTINUOUS
 62
    1
 10
263.89046572958904
 20
124.11151859242773
 11
269.38913055012586
 21
54.862477344398599
  0
LINE
  8
_0-5_5-1実寸型
  6
CONTINUOUS
 62
    1
 10
269.38913055012586
 20
54.862477344398599
 11
267.89383707610625
 21
54.743744760181059
  0
LINE
  8
_0-3_2-1寸法
  6
CONTINUOUS
 62
    7
 10
137.74971936635296
 20
239.15351726333782
 11
137.74971936635296
 21
246.75351726333773
  0
LINE
  8
_0-3_2-1寸法
  6
CONTINUOUS
 62
    7
 10
160.24971936635296
 20
236.25351726333753
 11
160.24971936635296
 21
246.75351726333773
  0
LINE
  8
_0-3_2-1寸法
  6
CONTINUOUS
 62
    7
 10
138.74971936635296
 20
246.25351726333773
 11
159.24971936635296
 21
246.25351726333773
  0
INSERT
  2
-000-_Dot
  8
_0-3_2-1寸法
 10
137.74971936635296
 20
246.25351726333773
 41
0.5
 42
0.5
 50
180
  0
INSERT
  2
-000-_Dot
  8
_0-3_2-1寸法
 10
160.24971936635296
 20
246.25351726333773
 41
0.5
 42
0.5
 50
0
  0
TEXT
  8
_0-3_2-1寸法
 62
    7
 10
145.99971936635296
 20
246.87851726333773
 40
3
 41
1
 50
0
  1
22.5
  0
LINE
  8
_0-3_2-1寸法
  6
CONTINUOUS
 62
    7
 10
124.74971936635296
 20
236.25351726333773
 11
39.781020998884173
 21
236.25351726333784
  0
LINE
  8
_0-3_2-1寸法
  6
CONTINUOUS
 62
    7
 10
57.24971936635302
 20
233.25351726333764
 11
39.781020998884173
 21
233.25351726333764
  0
LINE
  8
_0-3_2-1寸法
  6
CONTINUOUS
 62
    7
 10
40.281020998884173
 20
237.25351726333773
 11
40.281020998884173
 21
238.25351726333784
  0
LINE
  8
_0-3_2-1寸法
  6
CONTINUOUS
 62
    7
 10
40.281020998884173
 20
232.25351726333764
 11
40.281020998884173
 21
231.25351726333764
  0
LINE
  8
_0-3_2-1寸法
  6
CONTINUOUS
 62
    7
 10
40.281020998884173
 20
236.25351726333784
 11
40.281020998884173
 21
233.25351726333764
  0
INSERT
  2
-000-_Dot
  8
_0-3_2-1寸法
 10
40.281020998884173
 20
236.25351726333784
 41
0.5
 42
0.5
 50
270
  0
INSERT
  2
-000-_Dot
  8
_0-3_2-1寸法
 10
40.281020998884173
 20
233.25351726333764
 41
0.5
 42
0.5
 50
90
  0
TEXT
  8
_0-3_2-1寸法
 62
    7
 10
39.656020998884117
 20
234.00351726333773
 40
3
 41
1
 50
90
  1
3
  0
LINE
  8
_0-3_2-1寸法
  6
CONTINUOUS
 62
    7
 10
57.24971936635302
 20
233.25351726333764
 11
39.781020998884173
 21
233.25351726333764
  0
LINE
  8
_0-3_2-1寸法
  6
CONTINUOUS
 62
    7
 10
63.526447024580762
 20
153.50013056468734
 11
39.781020998884145
 21
153.50013056468734
  0
LINE
  8
_0-3_2-1寸法
  6
CONTINUOUS
 62
    7
 10
40.281020998884173
 20
232.25351726333764
 11
40.281020998884145
 21
154.50013056468734
  0
INSERT
  2
-000-_Dot
  8
_0-3_2-1寸法
 10
40.281020998884173
 20
233.25351726333764
 41
0.5
 42
0.5
 50
90
  0
INSERT
  2
-000-_Dot
  8
_0-3_2-1寸法
 10
40.281020998884145
 20
153.50013056468734
 41
0.5
 42
0.5
 50
270
  0
TEXT
  8
_0-3_2-1寸法
 62
    7
 10
39.656020998884117
 20
189.62682391401253
 40
3
 41
1
 50
90
  1
79.75
  0
LINE
  8
_0-3_2-1寸法
  6
CONTINUOUS
 62
    7
 10
124.74971936635296
 20
236.25351726333773
 11
29.918610222916072
 21
236.25351726333784
  0
LINE
  8
_0-3_2-1寸法
  6
CONTINUOUS
 62
    7
 10
63.526447024580762
 20
153.50013056468734
 11
29.918610222916072
 21
153.50013056468734
  0
LINE
  8
_0-3_2-1寸法
  6
CONTINUOUS
 62
    7
 10
30.418610222916072
 20
235.25351726333773
 11
30.418610222916072
 21
154.50013056468734
  0
INSERT
  2
-000-_Dot
  8
_0-3_2-1寸法
 10
30.418610222916072
 20
236.25351726333784
 41
0.5
 42
0.5
 50
90
  0
INSERT
  2
-000-_Dot
  8
_0-3_2-1寸法
 10
30.418610222916072
 20
153.50013056468734
 41
0.5
 42
0.5
 50
270
  0
TEXT
  8
_0-3_2-1寸法
 62
    7
 10
29.793610222916016
 20
191.12682391401253
 40
3
 41
1
 50
90
  1
82.75
  0
LINE
  8
_0-3_2-1寸法
  6
CONTINUOUS
 62
    7
 10
60.24971936635302
 20
236.25351726333764
 11
60.24971936635302
 21
256.73220706035454
  0
LINE
  8
_0-3_2-1寸法
  6
CONTINUOUS
 62
    7
 10
160.24971936635296
 20
236.24518743854034
 11
160.24971936635296
 21
256.73220706035454
  0
LINE
  8
_0-3_2-1寸法
  6
CONTINUOUS
 62
    7
 10
61.24971936635302
 20
256.23220706035454
 11
159.24971936635296
 21
256.23220706035454
  0
INSERT
  2
-000-_Dot
  8
_0-3_2-1寸法
 10
60.24971936635302
 20
256.23220706035454
 41
0.5
 42
0.5
 50
180
  0
INSERT
  2
-000-_Dot
  8
_0-3_2-1寸法
 10
160.24971936635296
 20
256.23220706035454
 41
0.5
 42
0.5
 50
0
  0
TEXT
  8
_0-3_2-1寸法
 62
    7
 10
107.99971936635296
 20
256.85720706035454
 40
3
 41
1
 50
0
  1
100
  0
LINE
  8
_0-3_2-1寸法
  6
CONTINUOUS
 62
    7
 10
324.27740486900848
 20
236.20351726333763
 11
250.49971936635316
 21
236.20351726333763
  0
LINE
  8
_0-3_2-1寸法
  6
CONTINUOUS
 62
    7
 10
263.62691835507866
 20
162.38574343109053
 11
250.49971936635305
 21
162.38574343109053
  0
LINE
  8
_0-3_2-1寸法
  6
CONTINUOUS
 62
    7
 10
250.99971936635316
 20
235.20351726333763
 11
250.99971936635305
 21
163.38574343109053
  0
INSERT
  2
-000-_Dot
  8
_0-3_2-1寸法
 10
250.99971936635316
 20
236.20351726333763
 41
0.5
 42
0.5
 50
90
  0
INSERT
  2
-000-_Dot
  8
_0-3_2-1寸法
 10
250.99971936635305
 20
162.38574343109053
 41
0.5
 42
0.5
 50
270
  0
TEXT
  8
_0-3_2-1寸法
 62
    7
 10
250.37471936635305
 20
195.54463034721414
 40
3
 41
1
 50
90
  1
73.82
  0
ARC
  8
_0-3_2-1寸法
  6
CONTINUOUS
 62
    7
 10
62.413307176967919
 20
231.25351726333773
 40
20.841630443410342
 50
280.00031692961329
 51
354.4996830703866
  0
SOLID
  8
_0-3_2-1寸法
  6
CONTINUOUS
 62
    7
 10
66.074599093923723
 20
210.39786983633903
 11
65.99046461875318
 21
211.05920623676792
 12
64.048522655051841
 22
210.47613461104183
 13
64.048522655051841
 23
210.47613461104183
  0
SOLID
  8
_0-3_2-1寸法
  6
CONTINUOUS
 62
    7
 10
82.82602642031199
 20
229.27181438612104
 11
83.491925256169623
 21
229.23982712540854
 12
83.254937620378243
 22
231.25351726333764
 13
83.254937620378243
 23
231.25351726333764
  0
TEXT
  8
_0-3_2-1寸法
 62
    7
 10
75.222431739907989
 20
215.32748591787987
 40
2.9999999999999929
 41
1.0000000000000024
 50
47.249999999999432
  1
86°
  0
ENDSEC
  0
EOF
